close

Вход

Забыли?

вход по аккаунту

?

Никольский Константин - Моя любовь (Мой друг художник и поэт)

код для вставкиСкачать
Моя любовь (Мой друг художник и поэт)
> Am Em
Мой друг художник и поэт в дождливый вечер на стекле
> Fmaj7 Dm E
Мою любовь нарисовал, открыв мне чудо на земле.
Сидел я молча у окна и наслаждался тишиной
Моя любовь с тех пор всегда была со мной.
> Fmaj7 Am
И время как вода текло и было мне тогда тепло,
> Dm F E E7 E
Когда в дождливый вечер я смотрел в оконное стекло.
> Fmaj7 Am
Но год за годом я встречал в глазах любви своей печаль,
> Dm Fmaj7 E
Дождливой скуки тусклый свет и вот, любовь сменила цвет.
Моя любовь сменила цвет, угас чудесный яркий день
Мою любовь ночная укрывает тень.
Веселых красок болтовня, игра волшебного огня
Моя любовь уже не радует меня.
Поблекли нежные тона, исчезла высь и глубина,
И четких линий больше нет - вот безразличия портрет.
Глаза в глаза любоь глядит, а я не весел, не сердит
Бесцветных снов покой земной молчаньем делится со мной.
И вдохновенное лицо утратит добрые черты.
Моя любовь умрет во мне в конце концов
И капли грустного дождя струиться будут по стеклу
Моя любовь неслышно плачет уходя.
И радугу прошедших дней застелит дым грядущих лет
И также потеряют цвет воспоминания о ней
Рисунок тает на стекле, его спасти надежды нет,
Но какже мне раскрасить вновь в цвет радости мою любовь
А может быть, разбить окно и окунуться в мир иной,
Где солнечный рисуя свет живет художник и поэт...
>Fmaj7
||---|---|---|---|
||-*-|---|---|---|
||---|-*-|---|---|
||---|---|-*-|---|
||---|---|-*-|---|
||-*-|---|---|---|
-
<fm>[|--1------
|--1------
|--1------
|--1----3-
|--1----3-
|--1------
<Fm cm>|--3------
|--3-4----
|--3---5--
|--3---5--
|--3------
|--3------]
>Cm
Мой друг художник и поэт в дождливый вечер на стекле
<c#>[|--1--------
|--1-2------
|--1--------
|--1---3----
|--1-----4--
|--1--------
<C# a#>|--1------
|--1--3---
|--1--3---
|--1--3---
|--1------
|--1------]<A#m c>
Мою любовь нарисовал, открыв мне чудо на земле.
<fm>[|--1------
|--1------
|--1------
|--1----3-
|--1----3-
|--1------
<Fm cm>|--3------
|--3-4----
|--3---5--
|--3---5--
|--3------
|--3------]
>Cm
Сидел я молча у окна и наслаждался тишиной
<c#>[|--1--------
|--1-2------
|--1--------
|--1---3----
|--1-----4--
|--1--------
<C# a#>|--1------
|--1--3---
|--1--3---
|--1--3---
|--1------
|--1------<A#m c7>|---------
|--1------
|---------
|----2----
|--1------
|---------]<C7>
Моя любовь с тех пор всегда была со мной.
<c#>[|--1--------
|--1-2------
|--1--------
|--1---3----
|--1-----4--
|--1--------
<C# fm>|--1------
|--1------
|--1------
|--1----3-
|--1----3-
|--1------]
>Fm
И время как вода текло и было мне всегда тепло,
<a#>[|--1------
|--1--3---
|--1--3---
|--1--3---
|--1------
|--1------<A#m c#>|--1--------
|--1-2------
|--1--------
|--1---3----
|--1-----4--
|--1--------
<C#6 c7>|---------
|--1------
|---------
|----2----
|--1------
|---------]<C7>
Когда в дождливый вечер я смотрел в оконное стекло.
<c#>[|--1--------
|--1-2------
|--1--------
|--1---3----
|--1-----4--
|--1--------
<C# fm>|--1------
|--1------
|--1------
|--1----3-
|--1----3-
|--1------]
>Fm
Но год за годом я встречал в глазах любви моей печаль,
<a#>[|--1------
|--1--3---
|--1--3---
|--1--3---
|--1------
|--1------<A#m c#6 c7>|---------
|--1------
|---------
|----2----
|--1------
|---------]<C7>
Дождливой скуки тусклый след и вот, любовь сменила цвет.
Моя любовь сменила цвет, угас чудесный яркий день
Мою любовь ночная укрывает тень.
Веселых красок болтовня, игра волшебного огня
Моя любовь уже не радует меня.
Поблекли нежные тона, исчезла высь и глубина,
И четких линий больше нет - вот безразличия портрет.
Глаза в глаза любовь глядит, а я не весел, не сердит
Безцветных снов покой земной молчаньем делится со мной.
И вдохновенное лицо утратит добрые черты.
Моя любовь умрет во мне в конце концов
И капли грустного дождя струиться будут по стеклу
Моя любовь неслышно плачет уходя.
И радугу прошедших дней застелит дым грядущих лет
И так же потеряют цвет воспоминания о ней
Рисунок тает на стекле, его спасти надежды нет,
Но какже мне раскрасить вновь в цвет радости мою любовь
А может быть, разбить окно и окунуться в мир иной,
Где солнечный рисуя свет живет художник и поэт...
!Solo
!Nylon guitar
[4-8-13--15--16--13--15------13---|--11---11--8--11-------|---------8----9---11--|
--------------------------16-----|-----------------------|----------------------|
---------------------------------|-----------------------|----------------------|
---------------------------------|-----------------------|----------------------|
---------------------------------|-----------------------|----------------------|
---------------------------------|-----------------------|----------------------|
---13----------------|------------------------------|-----------9--8-----|-------------------3--|
---------------------|--14--13--11--13--14--13--11--|------------------8--|--9---8--6--5---6-----|
---------------------|------------------------------|---------------------|----------------------|
---------------------|------------------------------|---------------------|----------------------|
---------------------|------------------------------|---------------------|----------------------|
---------------------|------------------------------|---------------------|----------------------|
-4-----------------|---4-8-13--15--16--13--15------13--|----11-------11--------|
-------------------|---------------------------16------|---------13------------|
-------------------|-----------------------------------|-----------------------|
-------------------|-----------------------------------|-----------------------|
-------------------|-----------------------------------|-----------------------|
-------------------|-----------------------------------|-----------------------|
--------------13--15--|--16--------18-------|------------------|----------------|
----------13----------|-----------------18--|------------------|----------------|
----------------------|---------------------|------------------|----------------|
----------------------|---------------------|------------------|----------------|
----------------------|---------------------|------------------|----------------|
----------------------|---------------------|------------------|----------------|
----0--8--15----------|
----------------------|
----------------------|
----------------------|
----------------------|
----------------------|]
!Solo
!D. Guitar-Solo
[-------------------|-------------------|-------------------|-------------------|
-------------------|-------1-----------|-------------------|-------1-----------|
--------------3----|--3-------1--------|--------------3----|--3-------1--------|
-------------------|-------------------|-------------------|-------------------|
-------------------|-------------------|-------------------|-------------------|
-------------------|-------------------|-------------------|-------------------|
-------------------|-------------------|-------------------|-------------------|
--------------1----|--1----2-----------|--------------1----|--1----2-----------|
-------------------|----------3--------|-------------------|----------3--------|
-------------------|-------------------|-------------------|-------------------|
-------------------|-------------------|-------------------|-------------------|
-------------------|-------------------|-------------------|-------------------|
-------------------|-------------------|-------------------|-------------------|
-------------------|-------1-----------|------------0------|---------1---------|
--------------3----|-3--------1--------|---------------3-1-|--3---------1------|
-------------------|-------------------|-------------------|-------------------|
-------------------|-------------------|-------------------|-------------------|
-------------------|-------------------|-------------------|-------------------|
-------------------|-------------------|-------------------|--------------------|
--------------1----|--1------2---------|--------------1----|-1------2-----------|
-------------------|-------------3-----|-------------------|-----------3--------|
-------------------|-------------------|-------------------|--------------------|
-------------------|-------------------|-------------------|--------------------|
-------------------|-------------------|-------------------|--------------------|
-------------------------|-----------------------|-----------------------|
----1--------------------|-----------------------|-----------------------|
-------3--1--3--1--3--3--|-----1--3---------1-3--|-------3----3---1------|
-------------------------|-----------3-----------|--------------------3--|
-------------------------|-----------------------|-----------------------|
-------------------------|-----------------------|-----------------------|
--------------1---------|--1---------1---------|----------------------|----------------------|
-----------1---------1--|------4--1---------1--|--2----------2--1-----|----1----2----1----2--|
--1----1-3--------------|----------------------|-------------------3--|----------------------|
------------------------|----------------------|----------------------|----------------------|
------------------------|----------------------|----------------------|----------------------|
------------------------|----------------------|----------------------|----------------------|
-------------------||
--4----------------||
-------------------||
-------------------||
-------------------||
-------------------||]
Документ
Категория
Ноты, аккорды
Просмотров
18
Размер файла
11 Кб
Теги
художник, друг, никольский, поэт, мой, любовь, константин
1/--страниц
Пожаловаться на содержимое документа