close

Вход

Забыли?

вход по аккаунту

?

Ногу свело - Хара мамбypy

код для вставкиСкачать
Xapa мaмбypy
> F#m Em C#
[1-----2-x-------2---2-| |----0-x-----0----0-------4------4-----4-----
2-----2-x-------2---2-| |----0-x-----0----0-------6------6-----6-----
3---2---x-------2---2-|4p|--0---x-----0----0-----6--------6-----6-----
4-------x-------------| |------x-----------------------6-------------
5-------------4-------| |----------2----------4------4-------7------- } и.т.д.
6-2---------5-----5---| |-0------0------4-------------------------2--]
!Пpипeв
> Em
[1---------------------
2---------------------
3---------------------
4-2---2-2----2-2------
5-2---2-2----2-2------
6-0---2-0----2-0------]
Документ
Категория
Ноты, аккорды
Просмотров
5
Размер файла
1 Кб
Теги
свело, харак, ногу, мамбypy
1/--страниц
Пожаловаться на содержимое документа