close

Вход

Забыли?

вход по аккаунту

?

Чайф - Ой-ё

код для вставкиСкачать
Ой-ё
> C G Am F
(1)От старых друзей весточки нет - грустно,
А на душе от свежих газет пусто,
И от несвежих невелика потеха,
Правда вот был армейский дружёк - уехал.
Припев:Ой-ё, ой-ё, ой-ё } 2 раза
(2)Запил сосед, у них на фабрике стачка.
С чаем беда осталась одна пачка.
На кухне записка: "Не жди я осталась у Гали."
Потелику грядется как дальше жить - достали.
!Припев
(3)Срей бы лёд спал, пошёл бы тогда на рыбалку.
Чего бы поймал знакомым раздал, не жалко.
Луна появилась и лезет настырно всё выше и выше.
> C G Am F G
Сейчас со всей мочи завою с тоски... Никто не услышит!
>C G Am F G
Припев:Ой-ё, ой-ё, ой-ё... Никто не услышит! } 2 раза
-
Solo guitar:< C G Am>
[E||-------------------------|----------------------|--------------------|
B||-------5--6--8--6--5-----|-----------8----------|--------------------|
G||--5-------------------5--|--7~------------7--5~-|----------------5-7-|
D||-------------------------|----------------------|--------------------|
A||-------------------------|----------------------|--------------------|
E||-------------------------|----------------------|--------------------|
> F G
--------------------------||
--------------------------||
--5-----5--7--7r---5--7--*||
-----7-------------------*||
--------------------------||
--------------------------||]
> C G Am F G
(1)От старых друзей весточки нет - грустно,
А на душе от свежих газет пусто,
И от несвежих невелика потеха,
Правда вот был армейский дружёк - уехал.
Припев:Ой-ё, ой-ё, ой-ё } 2 раза
(2)Запил сосед, у них на фабрике стачка.
С чаем беда осталась одна пачка.
На кухне записка: "Не жди я осталась у Гали."
Потелику грядется как дальше жить - достали.
!Припев
(3)Срей бы лёд спал, пошёл бы тогда на рыбалку.
Чего бы поймал знакомым раздал, не жалко.
Луна появилась и лезет настырно всё выше и выше.
> C G Am F G
Сейчас со всей мочи завою с тоски... Никто не услышит!
>C G Am F G
Припев:Ой-ё, ой-ё, ой-ё... Никто не услышит! } 2 раза
!Примечание:
!Можно вместо <F> и <G> брать <Fmaj7> и <Gmaj7>
!Струны по порядку, 1 - басовая струна(6)
!<Fmaj7> [132211]
!<Gmaj7> [354433]
-
!Все куплеты, кроме последнего играть перебором. Последний куплет и
!припев играть стандартным боем.
!ПЕРЕБОР (обязательно присутствие мезинца (пятого звука):
>C
1)-------0---------
2)------1-1--------
3)-----0---0-------
4)----2-----2------
5)---3-------------
6)-----------------
>G
1)-------3---------
2)------0-0--------
3)-----0---0-------
4)-----------------
5)-----------------
6)---3-------------
>Am
1)-----------------
2)------0(1)0------
3)-----2-----2-----
4)----2-------2----
5)---0-------------
6)-----------------
>C G Am F G
(1)От старых друзей весточки нет - грустно,
>C G Am F G
От свежих газет мне на душе пусто,
>C G Am F G
И от несвежих невелика потеря,
>C G Am F G
Правдо вот был армейский дружок - уехал.
>C G Am F G
Припев:Ой-ё ой-ё ой-ё,
>C G Am F G
Ой-ё ой-ё ой-ё
(2)Запил сосед, у них на фабрике стачка,
За чаем беда, осталась одна пачка,
На кухне записка:"Не жди, останусь у Гали",
По телеку рядятся, как дальше жить, достали.
!Припев
(3)Скорей бы лёд встал, пошёл бы тогда на рыбалку,
Чего бы поймал, знакомым раздал, не жалко,
Луна появилась и лезет настырно всё выше и выше,
Сейчас со всей мочи завою с тоски и никто не услышит.
>C G Am F G
Припев:Ой-ё ой-ё ой-ё, и ни кто не услышит,
>C G Am F G
Ой-ё ой-ё ой-ё, и ни кто не услышит.
-
>C
1)------0----------0------
2)------1----------1------
3)---------0----------0---
4)--------------2---------
5)---3--------------------
6)------------------------
>G
1)------3----------3-----
2)------0----------0-----
3)---------0----------0--
4)-----------------------
5)--------------2--------
6)---3-------------------
>Am
1)------0---------0-----
2)------1---------1-----
3)---------2---------2--
4)----------------------
5)---0---------0--------
6)----------------------
!для <F> следующие струны: 5, 3, 1+2, 3
!для <G> следующие струны: 6, 3, 1+2, 3
>C G Am F G
(1)От старых друзей весточки нет - грустно,
>C G Am F G
От свежих газет мне на душе пусто,
>C G Am F G
И от несвежих невелика потеря,
>C G Am F G
Правдо вот был армейский дружок - уехал.
!Припев:
>C
1)----------0--------------0------
2)----------1--------------1------
3)------0------0--------0-----0---
4)-------------------2------------
5)---3----------------------------
6)--------------------------------
>G
1)----------3--------------3------
2)----------0--------------0------
3)------0------0--------0------0--
4)--------------------------------
5)-------------------2------------
6)---3----------------------------
>Am
1)----------0--------------0------
2)----------1--------------1------
3)-------0-----2--------0------2--
4)--------------------------------
5)---0---------------0------------
6)--------------------------------
!для <F> следующие струны: 5, 3, 1+2, 3
!для <G> следующие струны: 6, 3, 1+2, 3
>C G Am F G
Припев:Ой-ё ой-ё ой-ё,
>C G Am F G
Ой-ё ой-ё ой-ё
(2)Запил сосед, у них на фабрике стачка,
За чаем беда, осталась одна пачка,
На кухне записка:"Не жди, останусь у Гали",
По телеку рядятся, как дальше жить, - достали.
!Припев
(3)Скорей бы лёд встал, пошёл бы тогда на рыбалку,
Чего бы поймал, знакомым раздал, не жалко,
Луна появилась и лезет настырно всё выше и выше,
Сейчас со всей мочи завою с тоски, и никто не услышит.
>C G Am F G
Припев:Ой-ё ой-ё ой-ё, и никто не услышит,
>C G Am F G
Ой-ё ой-ё ой-ё, и никто не услышит.
Документ
Категория
Ноты, аккорды
Просмотров
30
Размер файла
6 Кб
Теги
чайф
1/--страниц
Пожаловаться на содержимое документа