close

Вход

Забыли?

вход по аккаунту

?

Оргазм Нострадамуса - Старая песня о главном

код для вставкиСкачать
Старая песня о главном
intro:<F#5 A5 G#5>
>F# 5 H5
Дурманом сладким веяло
>G#5 C#5
Когда цвели хуи
>F#5 H5
Когда однажды вечером
>G#5 F#5
В любви признался ты!!
Дурманом сладким веяло
От слова твоего
Поверила поверила
И больше ничево
>A5 G5
Припев:Один раз в году хуи цветут
>H5 G5
Весну любви один раз жгут
>A5 G5 H5 A5
Всего один лиш только раз
>G5 H5 A5 G5
Встают хуи столбом у нас
>A5 G5 H5 F#5
Один лиш раз один лиш раз!
И звезды тихо падали
Когда цвели хуи
О будущем загадывал
О свадьбе думал ты
И я уже не прятала
Своих счастливых глаз
Украдкой мама плакала
От радости за нас
!Припев
solo 1:[1|-----------------------------------------------------------------10-9-7---------------
2|-----10-9-7-------------12-12--10---15-14-12-10-------10-10-7-----------77--7---------
3|--7----------9--11--9--------------------------------------------------------9---11-12
4|--------------9-----------------------------------------------------------------------
5|--------------------------------------------------------------------------------------
6|--------------------------------------------------------------------------------------
---------
-15-12---
---------
---------
---------
---------]
!solo 1 играть 2 раза
!solo2 быстро по 1 струне
[1| --777777777777777----9999999--888888--66666---555555-----------------------------6666-
777777777777--11-11-11-11-11-11- 10-10-10-10-10-10---5555555-----44444444-----------------
677777777777777---4444444---3333333--11111111------------------10-10--10-10-10---7777777--
10-10-10-10-10-----------555555---7777777777--5555555-------------------------------------]
И платье шилось белое
Когда цвели хуи
Но хули тут поделаеш
другую встретил ты
Красивая и смелая
Дорогу перешла
Черешней скороспелою
Любовь ее была
!Припев
Документ
Категория
Ноты, аккорды
Просмотров
6
Размер файла
2 Кб
Теги
главное, песни, оргазм, старая, нострадамуса
1/--страниц
Пожаловаться на содержимое документа