close

Вход

Забыли?

вход по аккаунту

?

Паганини Никколо - Большая саната в А, 1-ая часть

код для вставкиСкачать
Большая саната в А, 1-ая часть
!Allegro risoluto
[E||----------------------|--2-----0--------2-0---------|
B||--2---------3----4----|---------------------3-2-3-0-|
G||----------------------|---------------2-------------|
D||-------2--------------|-------------2---------------|
A||--0-------------------|-----0--4--------------------|
E||----------------------|---------------------0-------|
--------------------------|--------------------------|--2---------4--7--5--2--|
--------------0-----3--2--|--0-----------2-----------|--3---------------------|
--2-----------------------|-----1--1--1--2-----------|-------2----------------|
-----2-----2-----2--------|-----------------2--------|--0---------------------|
--0-----4-----------------|--0-----------------4--0--|------------------------|
--------------4-----0-----|--------------------------|------------------------|
----------------5-4-2-0-----|-------------------------|
--4--5--5---------------3-2-|--2--0--0-------2--0-----|
--------2-------------------|----------------------2--|
----------------------------|--0----------1-----------|
--4--------0----------------|-------------------------|
----------------------------|-------------------------|
--------------------------|--9----------10----11----|
--------------------------|-------------------------|
--2--1--------------------|-------------------------|
--------4--2-----0--------|-------11----------------|
--------------------4--2--|--0----------------------|
--0-----------0-----------|-------------------------|
--14-----12------14-12-10-9-10----|---------------7----10--9--|
-------------------------------12-|--10-----------------------|
----------------------------------|---------------------------|
----------------------------------|---------------------------|
------0---------------------------|------0-----0--------------|
----------------------------------|---------9----------0------|
--7------------------------|--2---------4--7--5--2--|-------------------------|
-----9--9--9--10-----------|--3---------------------|--4--5--5--3--3--2----2--|
---------------------------|-------2----------------|--------2-----2----------|
--------------7------------|--0---------------------|--------------4----------|
------------------7-----0--|------------------------|--4----------------------|
--0------------------9-----|------------------------|-------------------------|
-----------2-------------|-----9--7-------------------------7--9--|
-----0--3----------2--0--|-----------10--9--7-----7--9--10--------|
--3-----------2----4-----|---------------------9------------------|
--0-----------2----------|--7-------------------------------------|
-------------------------|--0------------------0------------------|
-------------------0-----|----------------------------------------|
--10--9--7--7------------------0--2--4--|--5----------------------------------|
---------------10--9--9--7--5-----------|-----2--0-----------------------0--2-|
----------------------------------------|-----------2--1-----------1--2-------|
----------------------------------------|-----------------4--2--4-------------|
----------------------------------------|--0-----------------0----------------|
--0---------0---------0--------0--------|-------------------------------------|
--------------------------------------|-----------5--------|
--3--2--0--0--------------------------|-----------2--------|
--------------2--1--1--------------1--|--2--------2--------|
-----------------------4--2--2--4-----|-----------2--------|
--------------------------------------|--0--------0--------|
--0--------0--------0--------0--------|--------------------|
--9-------7--5--4--------|-------------2--4--5--9--|--7-------5--4--2--------|
-------------------7--6--|--7-------2--------------|-------------------5--4--|
--6----------------------|-------------------------|-------------------------|
-------------------------|-------------------------|-------------------------|
-------0-----------4-----|-------------------------|--7----------------------|
-------------------------|-------2-----------------|-------0-----------------|
--0----------------0--2--|--3-------------------0---0---0---|
----------0--2--4--------|----------1---------------1-------|
-------------------------|----0---0---0---0---0---0---0---0-|
--2----------------------|------2-------2-------2-------2---|
-------------------------|--3---------------3---------------|
-------0-----------------|----------------------------------|
--3-------------------0---0---0---|--3-------------------3---2---0---|
----------0---------------0-------|----------0---------------0-------|
----0---0---0---0---0---0---0---0-|----0---0---0---0---0---0---0---0-|
------2-------2-------2-------2---|------2-------2-------2-------2---|
--2---------------2---------------|--1---------------1---------------|
----------------------------------|----------------------------------|
-----------0-2-4-5--5--4--2--|--4----4---5---6---7---7---5---4-|
--4--0-2-4----------------0--|--0------------------------------|
--------------------4--4-----|---------------------------------|
--------------------4--2--1--|--2--2---4---5---6---6---4---2---|
--2--------------------------|---------------------------------|
-----------------------------|---------------------------------|
--2--------0-2-4-5--5--4--2--|--4----4---5---6---7---7---5---4-|
-----0-2-3----------------0--|--0------------------------------|
--------------------4--4-----|---------------------------------|
--1-----------------4--2--1--|-----2---4---5---6---6---4---2---|
-----------------------------|---------------------------------|
-----------------------------|--0------------------------------|
-----2--2--4--2--4--2--4--|--2--11--11--12--11--12--11--12--|
-----0--0--0--0--0--0--0--|--0------0---0---0---0---0---0---|
--------------------------|---------11--13--11--13--11--13--|
-----------2-----2-----2--|---------------------------------|
--2-----2-----2-----2-----|--2------------------------------|
--------------------------|---------------------------------|
--11--14--17--16--14--------------|-------------------------------------|
--0-------------------17--16--14--|--12--11-12-13-14--12--10--9--10--7--|
--11------------------------------|-------------------------------------|
----------------------------------|-------------------------------------|
----------------------------------|-------------------------------------|
----------------------------------|-------------------------------------|
--0-----------0--0--------|--------------------------|--0--4--0----------5----|
-----0-----0--------4--2--|--0--------------0--2--4--|-----------4--2----7----|
--------1-----------------|-----2-----2--------------|------------------------|
--------------------------|--------1-----------------|------------------------|
--------------------------|--------------2-----------|--------------0---------|
--0-----------0-----------|--------------------------|--------4---------------|
-------------------------|--------------------------|-------------------------|
--9-------10-9-7----8----|--9-----------9--7--------|-----------------------9-|
--9------------8---------|--------------------9--8--|--6--------------8--9----|
-------9-------9---------|-----6-----6--------------|-----6-----6-------------|
-------------------------|--------6-----------------|--------7----------------|
--7----------------------|--8-----------8-----------|--9-----------9----------|
-----7--------0----------------|------------------------|
--7--------9-------------4--2--|--2---------------------|
--------7--------6--4----------|------------4--2--1-----|
--------------------4----------|-------4-------------4--|
-----------7-------------------|------------------------|
-------------------------2-----|------------------------|
--12---------------12--11--9--|--------------------------------|
------------------------------|--12------------12--12--11--10--|
--9---------------------------|--------------------------------|
------9------9----------------|--------------------------------|
---------11-------------------|------9------9------------------|
----------------0-------------|--11-----11-----11--------------|
-------------------5----|--4-----------2----3----|--4--------------4--6--8--|
--9--7------------------|-----0-----0--4----2----|--------------------------|
--------9--8--6----6----|--------3-----4----2----|--5-----------------------|
------------------------|------------------------|--6--1-----1--------------|
-------------------0----|--2---------------------|--------3-----------------|
--0---------------------|------------------------|--------------4-----------|
--9--11--12-------9----------|--------------------------|
---------9-----------10------|--9-----------------9--7--|
---------9---------------11--|------11--9---------8-----|
-----------------------------|----------8----9----------|
--0------------0-------------|--11----------------------|
-----------------------------|--------------------7-----|
--------0-6-7-9-7-------0-6-7-9-7-|--------2-5-4-2-0-----------------|
------0---------------0-----------|------0-----------4-2-0-----------|
----------------------------------|----2-------------------2-1-------|
----6---------------6-------------|----------------------------4-2-1-|
----------------------------------|--2-------------------------------|
--0---------------0---------------|----------------------------------|
--------0-6-7-9-7-------0-6-7-9-7-|--------2-5-4-2-0-----------------|
------0---------------0-----------|------0-----------4-2-0-----------|
----------------------------------|----2-------------------2-1-------|
----6---------------6-------------|----------------------------4-2-1-|
----------------------------------|--2-------------------------------|
--0---------------0---------------|----------------------------------|
--------0---4---5---7----9----10----9-|-----10----9---7---5---4---2---0-----|
------0---5---7---9---10---12----11---|--12----10---9---7---5---3---2---0-3-|
----1---------------------------------|-------------------------------------|
--------------------------------------|-------------------------------------|
--------------------------------------|-------------------------------------|
--0---------------0-------------------|-------------0-------0-------0-------|
-----------0--2--4--5--7--|--9--11--12--11--14--12--11--9--|
--2--2--4-----------------|--------------------------------|
--2-----------------------|--------------------------------|
--------------1--2--4--6--|--7--9---11--10--13--11--9---7--|
-----0--2--4--------------|--------------------------------|
--------------------------|--------------------------------|
--7--12--11--10--9--8--7--6--|--7--12--16--0--4--4-2-4-2-0-2-|
-----------------------------|-------------------------------|
-----------------------------|-------------------------------|
--6--------------------------|-------------------------------|
-----------------------------|-------------------------------|
-----------------------------|-------------------------------|
--------0-6-7-9-7-------0-6-7-9-7-|--------2-5-4-2-0-----------------|
------0---------------0-----------|------0-----------4-2-0-----------|
----------------------------------|----2-------------------2-1-------|
----6---------------6-------------|----------------------------4-2-1-|
----------------------------------|--2-------------------------------|
--0---------------0---------------|----------------------------------|
--------0-6-7-9-7-------0-6-7-9-7-|--------2-5-4-2-0-----------------|
------0---------------0-----------|------0-----------4-2-0-----------|
----------------------------------|----2-------------------2-1-------|
----6---------------6-------------|----------------------------4-2-1-|
----------------------------------|--2-------------------------------|
--0---------------0---------------|----------------------------------|
--------0---4---5---7----9----10----9-|-----10----9---7---5---4---2---0-----|
------0---5---7---9---10---12----11---|--12----10---9---7---5---3---2---0-3-|
----1---------------------------------|-------------------------------------|
--------------------------------------|-------------------------------------|
--------------------------------------|-------------------------------------|
--0---------------0-------------------|-------------0-------0-------0-------|
-----------0--2--4--5--7--|--9--11--12--11--14--12--11--9--|
--2--2--4-----------------|--------------------------------|
--2-----------------------|--------------------------------|
--------------1--2--4--6--|--7--9---11--10--13--11--9---7--|
-----0--2--4--------------|--------------------------------|
--------------------------|--------------------------------|
--7----7---9---10----12----14----16----17-|--19------------------16--19--19--|
------------------------------------------|------12--14--16--17--------------|
------------------------------------------|----------------------------------|
--6--6---7---9----11----12----14----16----|--18------------------------------|
------------------------------------------|----------------------------------|
------------------------------------------|----------------------------------|
----------0--4--7--12----------|--4---2-4-2-4-2-4-2-4-2-4-2-0-2-|
--------0--------------12------|--------------------------------|
------1--------------------13--|--4-----------------------------|
----2--------------------------|--------------------------------|
--2----------------------------|--------------------------------|
-------------------------------|--------------------------------|
--0-----------------------|-----------------7--6--5--|
-----0-----0-----5--4--2--|--0-----------------------|
--------1-----------------|-----2-----2--------------|
--------------------------|--------1-----------------|
--------------------------|--------------2-----------|
--0-----------0-----------|--------------------------|
--5----4----4--2--4--5--7--9--|--9--------------------|
------------------------------|-----------------9--7--|
------------------------------|-------9---------8-----|
------------------------------|-------8----9----------|
------------0-----------------|-----------------------|
--0---------------------------|-----------------7-----|
--0----------------0--------------|-----------------7--6--5--|
-------0-----0--------4--3--2--1--|--0-----------------------|
----------1-----------------------|-----2-----2--------------|
----------------------------------|--------1-----------------|
----------------------------------|--------------2-----------|
--0-------------0-----------------|--------------------------|
--5----4-------2--4--5--7--9--|--9----0---------------|
------------------------------|------------0----9--7--|
------------------------------|-----------------8-----|
------------------------------|-------8---------------|
------------0-----------------|-----------------------|
--0---------------------------|-----------------7-----|
--------0----2--------0----11--|--------0----2--------0----11--|
------0------0------0---0--10--|------0------0------0---0--10--|
----1-------------1--------11--|----1-------------1--------11--|
----------1-----2--------------|----------1-----2--------------|
-------------------------------|-------------------------------|
--0----------------------------|--0----------------------------|
-----0--4--7--12-----------|-------0----0--------|---------------------|
---------------------------|-------0----0--------|---------------------|
---------------------------|-------1----1--------|---------------------|
------------------2--------|--2----2----2--------|--9--------7----6----|
---------------------2-----|-------2----2--------|---------------------|
--0---------------------4--|--0----0----0--------|--7--------5----4----|
--------------------|---------------------|--------------------|
--------------------|---------------------|--------------------|
--------------------|---------------------|--------------------|
--4--------2--------|--9--------7----6----|--4--------3--------|
--------------------|---------------------|--------------------|
--2--------0--------|--7--------5----4----|--2--------1--------|
---------------------|----------------------|--4--2--0-----------------|
---------------------|----------------------|--6--3--2--3--2--0--------|
--7--------6----4----|----------------------|-----------4--2--1--2--1--|
---------------------|--7----6----4----3----|--------------------4--3--|
--5--------4----2----|----------------------|--------------------------|
---------------------|--5----4----2----1----|--------------------------|
---------------------------------|----------------------------------|
---------------------2---2---2---|--3-------2-----------2---2---0---|
--2------------------------------|----1---1---1---1---1---1---1---1-|
-------4---4---4---4---4---4---4-|------3-------3-------3-------3---|
-----0-------0-------0-------0---|----------------------------------|
--2------2-------2-------2-------|--1-------1-------1-------1-------|
----------------------------------|---------------------4-2-0-------|
----------------------2---2---2---|--3-------2----------------3-2-0-|
--2-------------------------------|----1---1---1---1----------------|
----4---4---4---4---4---4---4---4-|------3-------3------------------|
------0-------0-------0-------0---|---------------------------------|
--2-------2-------2-------2-------|--1-------1-------1--------------|
----------------------------------|----------3-----------0-----------|
----------------------2---2---2---|--2-----------------------3---2---|
--2-------------------------------|----------------------------------|
----4---4---4---4---4---4---4---4-|----2---2---2---2---2---2---2---2-|
------0-------0-------0-------0---|------0-------0-------0-------0---|
--2-------2-------2-------2-------|--0-------0-------0-------0-------|
----------------------------------|----------2-----------------------|
--3-------------------3---3---3---|--2-------------------5---3---2---|
----------------------------------|----3---3---3---3---3---3---3---3-|
----0---0---0---0---0---0---0---0-|------4-------4-------4-------4---|
------0-------0-------0-------0---|----------------------------------|
--2-------2-------2-------2-------|--2-------2-------2-------2-------|
----------------------------------|----------2----------5-3-2-0-----|
--3-------0-----------0---2---3---|--2--------------------------3-2-|
----------------------------------|----3---3---3---3----------------|
----0---0---0---0---0---0---0-----|------4-------4------------------|
------2-------2-------2-------2-4-|---------------------------------|
--2-------2-------2-------2-------|--2-------2-------2--------------|
----------------------------------|----------------------------------|
--0-------------------0---0---0---|--3-------1-----------3-1-0---1---|
----------------------------------|----------------------------------|
----0---0---0---0---0---0---0---0-|----0---0---0---0---0---0---0---0-|
------2-------2-------2-------2---|------0-------0-------0-------0---|
--2-------2-------2-------2-------|--2-------2-------2-------2-------|
----------------------3-----------|---------------------5-3-2-0-----|
--0-------3---------------3---0---|--3-------1------------------3-1-|
----------------------------------|---------------------------------|
----0---0---0---0---0---0---0---0-|----0---0---0---0----------------|
------2-------2-------2-------2---|------0-------0------------------|
--3-------3-------3-------3-------|--2-------2-------2--------------|
----------------------------------|----------2-----------------------|
--0-------------------0---0---0---|--0-------------------0---0---0---|
----------------------------------|----2---2---2---2---2---2---2---2-|
----0---0---0---0---0---0---0---0-|------1-------1-------1-------1---|
------2-------2-------2-------2---|----------------------------------|
--3-------3-------3-------3-------|--2-------2-------2-------2-------|
----------3-----------------------|----------3-----------3-1-0-------|
--0-------------------0---0---0---|--0-------------------------3-1-0-|
----1---1---1---1---1---1---1---1-|----0---0---0---0---0---0---0---0-|
------2-------2-------2-------2---|------0-------0-------0-------0---|
----------------------------------|----------------------------------|
--0-------0-------0---------------|--1-------1-------1-------1-------|
-----3-3-3-3-3-3-3-3---3---3---3-|----3---3---3---3---3---3---3---3-|
--1----------------------3---5---|--3-------------------------------|
---------------------5-----------|------5---4---2---0---------------|
---------------------------------|----------------------3---2---0---|
---------------------------------|----------------------------------|
--0------------------------------|----------------------------------|
--3--0-0-0-0-0-0-0-0---0---0---0-|----0---0---0---0---0---0---0---0-|
--1----------------------0---1---|--0-------------------------------|
--0------------------2-----------|------2---1-----------------------|
--2------------------------------|--------------3---2---0-----------|
--3------------------------------|--------------------------3---2---|
---------------------------------|----------------------------------|
--0--5-5-5-5-5-5-5-5---5---5---5-|----5-5-5---5-5-5-5-5---5---5---5-|
--1------------------------------|----------------------------------|
--2------------------------------|----------2-----------------------|
--2--------------------------2---|--3---------------------------3---|
--0------------------0---3-------|----------------------0---3-------|
---------------------------------|----------------------------------|
----5-5-5---5-5-5-5-5---5---5---5-|----5-5-5---5-5-5-5-5---5---5---5-|
----------------------------------|----------------------------------|
----------2-----------------------|----------------------------------|
--2---------------------------2---|----------7-----------------------|
----------------------0---3-------|--6-------------------8---7---6---|
----------------------------------|----------------------------------|
-----------------9-11-12--0--0--0--|--0----------10-12-14-16-17--0--0--0--|
---------9-10-12----------0--1--3--|--1-10-12-13-----------------1--3--1--|
----9-11------------------1--2--4--|--2-----------------------------4--2--|
-----------------------------------|--------------------------------------|
-----------------------------------|--0--------------------------0--0--0--|
--0-----------------------0--0--0--|--------------------------------------|
-----------------9-11-12--0--0--0--|--0----------10-12-14-16-17--0--0--0--|
---------9-10-12----------0--1--3--|--1-10-12-13-----------------1--3--1--|
----9-11------------------1--2--4--|--2-----------------------------4--2--|
-----------------------------------|--------------------------------------|
-----------------------------------|--0--------------------------0--0--0--|
--0-----------------------0--0--0--|--------------------------------------|
--0--0--0--0--0--11--12--11--|--12-----------4--5--7--9--|
--0--1--0--1--0--10--9---10--|--9---4--5--7--------------|
--1--2--1--2--1--------------|--9------------1--2--4--6--|
-----------------------------|------1--2--4--------------|
-----0-----0-----------------|---------------------------|
--0-----0-----0--------------|--0------------------------|
--10----9---10---9---10---9---10---9-|--7----5---7---5---7---5---7---5-|
-------------------------------------|---------------------------------|
--7---6---7----6---7----6---7----6---|---------------------------------|
-------------------------------------|--9--7---9---7---9---7---9---7---|
-------------------------------------|---------------------------------|
-------------------------------------|---------------------------------|
----4---3---4---2---0-------0---1-|----2---1---0---------------------|
------------------------4---------|----------------4---3---2---1---0-|
--1---0---1-----------------------|----------------------------------|
--------------4---2---1---2---3---|--4---3---2---1---0---------------|
----------------------------------|----------------------4---3---2---|
----------------------------------|----------------------------------|
------------------------------|-----------------------|
------------------------------|-----------------------|
----3---2---1---0-------------|-------------------0-1-|
--------------------4---3-----|-----2---------3-4-----|
--1---0-----------------------|-----------------------|
----------4---3---2---1-------|--0--------------------|
--------------------------|--------------------------|------------------------|
--------------------------|--------------------------|-----2-------------3----|
--2--------------2--1-----|-----------------------1--|--2-----2--1-------4----|
-----2-----2-----------4--|--2--------------2--4-----|--------------4---------|
--0-----4-----0-----------|-----2-----2--------------|--0-----------5---------|
--------------------------|--------4-----0-----------|------------------------|
------------------------|--------------------------|--------------------------|
--2-------3-2-0----1----|--2--------------0--------|-----------------------2--|
--2---------------------|-----1-----1--------2--1--|-----------------1--2-----|
-------2----------------|--------3-----------------|--4-----------------------|
--0---------------------|--------------4-----------|-----4-----4--------------|
-------0----------------|--------------------------|--------5-----2-----------|
--------0----------------------|------------------------|
--0--4-----2-------------------|------------------------|
--------------2----------1-----|------------------------|
-----------------4--2-------4--|-------1----2--0--------|
-----------0--------2----2-----|--2---------------4--2--|
--4----------------------------|------------0-----------|
--5--------------5--4--2--|--0--------------0--2--4--|
--------------------------|--------------------------|
--2-----------------------|--------------------------|
-----2-----2--------------|--2-----------------------|
--0-----4-----0-----------|-----2-----2--------------|
--------------------------|--------4-----0-----------|
--5--7--9--5--------10----|--9-------10-9-7----8----|
--------------7-----------|---------------0---------|
-----------------7--------|-------------------------|
--------------0-----------|-------------------------|
--0-----------------------|--0----------------------|
--------------------------|-------0-----------------|
--9--------------9--11--13--|--14--16--17-------14----------|
----------------------------|-----------------------15--12--|
--6-------------------------|-------------------------------|
-----6-----6----------------|----------------0--------------|
--------8-------------------|-------------------------------|
--------------9-------------|-------------------------------|
---------------------9--7--|--------0-11-12-14-12-------0-11-12-14-12-|
--14--12--10---------------|------------------------------------------|
----------8-----9----6-----|------6-------------------6---------------|
----------7----------9-----|----7-------------------7-----------------|
---------------------------|--0-------------------0-------------------|
---------------------0-----|------------------------------------------|
----------10-9-7--------------------|-------0-11-12-14-12-------0-11-12-14-12-|
------0----------10-9-7-------------|-----------------------------------------|
--------7---------------9-7-6-------|-----6-------------------6---------------|
----6-------------------------9-7-6-|---7-------------------7-----------------|
------------------------------------|-0-------------------0-------------------|
--0---------------------------------|-----------------------------------------|
----------10-9-7--------------------|
------0----------10-9-7-------------|
--------7---------------9-7-6-------|
----6-------------------------9-7-6-|
------------------------------------|
--0---------------------------------|
--------0----9----10----12----14----15----14-|
----------10---12----14----15----17----16----|
------6--------------------------------------|
----7----------------------------------------|
--0------------------------------------------|
---------------------------------------------|
-----16----14----12----10----9---7---5---4-|--2--2--4--5--7--9--10--12--|
--17----15----14----12----10---9---7---5---|--3-------------------------|
-------------------------------------------|----------------------------|
-------------------------------------------|-----0--2--4--6--7--9---11--|
--------------0-----------0--------0-------|----------------------------|
-------------------------------------------|----------------------------|
--14--16--17--16--17--16--17--14--|--12--17--16--15--14--13--12--11--|
----------------------------------|----------------------------------|
----------------------------------|----------------------------------|
--12--14--16--15--16--15--16--12--|--11------------------------------|
----------------------------------|----------------------------------|
----------------------------------|----------------------------------|
--12--17--12--9--9------9----------|--------0-11-12-14-12-------0-11-12-14-12-|
--------------------12----12-10-12-|------------------------------------------|
-----------------------------------|------6-------------------6---------------|
-----------------------------------|----7-------------------7-----------------|
-----------------------------------|--0-------------------0-------------------|
-----------------0-----------------|------------------------------------------|
----------10-9-7--------------------|-------0-11-12-14-12-------0-11-12-14-12-|
------0----------10-9-7-------------|-----------------------------------------|
--------7---------------9-7-6-------|-----6-------------------6---------------|
----6-------------------------9-7-6-|---7-------------------7-----------------|
------------------------------------|-0-------------------0-------------------|
--0---------------------------------|-----------------------------------------|
----------10-9-7--------------------|
------0----------10-9-7-------------|
--------7---------------9-7-6-------|
----6-------------------------9-7-6-|
------------------------------------|
--0---------------------------------|
--------0----9----10----12----14----15----14-|
----------10---12----14----15----17----16----|
------6--------------------------------------|
----7----------------------------------------|
--0------------------------------------------|
---------------------------------------------|
-----16----14----12----10----9---7---5-0-3-|--2--2--4--5--2--2--4--5--|
--17----15----14----12----10---8---7-------|--3-----------------------|
-------------------------------------------|--------------------------|
-------------------------------------------|-----0--3--4--0--0--3--4--|
--------------0-----------0--------0-------|--------------------------|
-------------------------------------------|--------------------------|
--2--2--4--5--7--5--4--2--|--0----0---2---4---5---7---9---10-|
--------------------------|----------------------------------|
--------------------------|----------------------------------|
--0--0--3--4--6--4--2--0--|---------0---2---4---6---7---9----|
--------------------------|--4--4----------------------------|
--------------------------|----------------------------------|
--12--0-------------9--12--12--|------------0-5-9-12--17----------|
-------------9--10-------------|----------2---------------17------|
---------11--------------------|--------2---------------------18--|
--11---------------------------|------2---------------------------|
-------------------------------|----0-----------------------------|
-------------------------------|--0-------------------------------|
--9--9-7-9-7-9-7-9-7-9-7-9-7-5-7-|--5--0-----0-----5--4--2--|
---------------------------------|--------2-----------------|
---------------------------------|--------------------------|
---------------------------------|--------------------------|
---------------------------------|--0-----------0-----------|
--0------------------------------|--------------------------|
--0-----------0--12--11--10--|--10----9-------7--9--10--12--14--|
-----0-----0-----------------|----------------------------------|
--------1--------------------|----------------------------------|
-----------------------------|-------------0--------------------|
-----------------------------|--0-------------------------------|
--------------0--------------|----------------------------------|
--14----------------9--7--|------0-----0-----5--4--3--2--1--|
--------------------9-----|--10-----2-----------------------|
--------14----------------|---------------------------------|
--------13----14----------|---------------------------------|
--------------------------|--0------------0-----------------|
--------------------0-----|---------------------------------|
--0-----------0--14--12--10--|--10----9-----9--7--9--10--12--14--|
-----------------------------|-----------------------------------|
-----1-----1-----------------|-----------------------------------|
--------2--------------------|--12----11----0--------------------|
-----------------------------|--0--------------------------------|
--------------0--------------|-----------------------------------|
--14----------------9--7--|--------0----0--------0----12--|
--------------------------|------2------3------2------15--|
--------14----------6-----|----2--------4----2--------13--|
--------13----14----9-----|-------------------------------|
--------------------------|--0-------------0--------------|
--------------------0-----|----------4-------------0------|
--------0----0--------0----12--|---------9---12--17-------------------|
------2------3------2------15--|--------------------------------------|
----2--------4----2--------13--|-----14----------14-----14------------|
-------------------------------|---------11--14---------------14---11-|
--0-------------0--------------|--0--12--------------12---------------|
----------4-------------0------|---------------------------12----9----|
-----------5----5----|--5----------------||
---------------------|-------------------||
-----------6----6----|--6----------------||
--7--------7----7----|--7----------------||
--0--------0----0----|--7----------------||
---------------------|--5----------------||]
Документ
Категория
Ноты, аккорды
Просмотров
12
Размер файла
35 Кб
Теги
часть, паганини, большая, никколо, саната
1/--страниц
Пожаловаться на содержимое документа