close

Вход

Забыли?

вход по аккаунту

?

Паганини Никколо - Каприз №2

код для вставкиСкачать
Каприз №2
|-19-21-22-19-21-18-20-17-19-16-18-15-|-17-14-16-13-15-12-14-11-13-10-12-9-|
|-------------------------------------|------------------------------------|
|-------------------------------------|------------------------------------|
|-------------------------------------|------------------------------------|
|-------------------------------------|------------------------------------|
|-------------------------------------|------------------------------------|
|-10-13-15-13-14---------------|-------------------------------------------|
|-------------------14---------|-12-14-15-12-14-11-13-10-12-9-11-8---------|
|----------------16------------|-------------------------------------------|
|------------------------------|-------------------------------------------|
|------------------------------|-------------------------------------------|
|------------------------------|-------------------------------------------|
|------------------------------|-----3---2---------------------------------|
|-10-7-9-6-8-5-7-4-6-3-5-2-----|-3-6---6------2----------------------------|
|------------------------------|-----------4-------------------------------|
|------------------------------|-------------------------------------------|
|------------------------------|-------------------------------------------|
|------------------------------|-------------------------------------------|
!(2-ой отрывок)
|----19-18-19-17-19-15-19-14-19----19--|----19----19----19----19----19----19|
|-------------------------------17-----|-15----14----------------------15---|
|-16-----------------------------------|-------------16----15----16---------|
|--------------------------------------|------------------------------------|
|--------------------------------------|------------------------------------|
|--------------------------------------|------------------------------------|
|----18-15-18-14-18----18----18----18-|----18----18----18----18----18----18|
|-14----------------17----15----14----|-------------------14----15----17---|
|-------------------------------------|-16----15----16---------------------|
|-------------------------------------|------------------------------------|
|-------------------------------------|------------------------------------|
|-------------------------------------|------------------------------------|
|----19----19----19----19----19----19-|----22----22----22----22----22----22|
|-15----------------------------------|------------------------------------|
|-------------------------------------|------------------------------------|
|-------16----14----------------------|-17----21----19----17----16----17---|
|-------------------17----16----14----|------------------------------------|
|-------------------------------------|------------------------------------|
|----22----22----22----22----22----22-|---22----22----22----22----22----22-|
|-------------------------------------|------------------------------------|
|-------------------------------------|------19----18----------------------|
|-16----21----17----16----15----16----|15----------------21----17----14----|
|-------------------------------------|------------------------------------|
|-------------------------------------|------------------------------------|
|----------------|
|----------------|
|----------------|
|-16~------------|
|----------------|
|----------------|
Документ
Категория
Ноты, аккорды
Просмотров
7
Размер файла
3 Кб
Теги
каприз, паганини, никколо
1/--страниц
Пожаловаться на содержимое документа