close

Вход

Забыли?

вход по аккаунту

?

Паганини Никколо - Каприз №24

код для вставкиСкачать
Каприз №24
! Theme
! Moderately Fast Q=126
> (Am) (E) (Am) (E)
! 2/4
! Gtr I
||----------------|---------------|---------------|-----------||
||o---------------|---------------|---------------|----------o||
||----------------|-9-------------|---------------|-9\--------||
||--7--7-7h10p9p7-|---------------|-7--7-7h10p9p7-|-----2-----||
||o---------------|----7-7h11p9p7-|---------------|----------o||
||----------------|---------------|---------------|-----------||
> (A) (Dm)
|--------------------|--------------------|
|--------------------|--------------------|
|-14--14-14h15p14p12-|--------------------|
|--------------------|-15--12-12h15p14p12-|
|--------------------|--------------------|
|--------------------|--------------------|
> (G) (C)
|--------------------|---------------------|
|--------------------|---------------------|
|-12--12-12h14p12p10-|---------------------|
|--------------------|-14--10-10h14p12p10--|
|--------------------|---------------------|
|--------------------|---------------------|
> (B7) (Am) (F7) (E7) (Am)
|-----------------|---------------|--------------|--------||
|-----------------|---------------|--------------|--------||
|-10--------------|-9-------------|----8---9p7---|--------||
|-----9-9h12p10p9-|----7-7h10p9p7-|------------9-|-7\-----||
|-----------------|---------------|-8----7-------|-----0--||
|-----------------|---------------|--------------|--------||
! Variation 1
! Q=100
> (Am) (E)
||-----8-12p8------------|--------------------|
||o-10--------10---------|---9-12-9-----------|
||---------------9-------|-9--------9---------|
||-----------------10----|------------9-------|
||o-------------------12-|--------------11----|
||-----------------------|-----------------12-|
> (Am) (E)
|----8-12-8------------|---------||
|-10--------10---------|--------o||
|--------------9-------|-9\------||
|----------------10----|-----2---||
|-------------------12-|--------o||
|----------------------|---------||
> (A) (Dm)
|----12-17p12-------------|-------------------10h13-|
|-14----------14----------|----------------10-------|
|----------------14-------|-------------10----------|
|-------------------12----|----------12-------------|
|----------------------16-|-------12----------------|
|-------------------------|-10-13-------------------|
> (G) (C)
|----10-15p10-------------|----------------8h12-||
|-12----------12----------|--------------8------||
|----------------12-------|------------9--------||
|-------------------12----|---------10----------||
|----------------------14-|------10-------------||
|-------------------------|-8-12----------------||
> (B7) (Am) (F7) (E) (Am)
|-13p10p7-------------|-12h15p8-----------------|-------------------|--------||
|---------9-----------|---------10--------------|-------------------|--------||
|-----------10p7------|------------9------------|--------7-10---9---|--------||
|----------------9----|--------------10---------|------9----------6-|-7\-----||
|------------------11-|-----------------12------|----8--------7-----|-----0--||
|---------------------|--------------------12p8-|-10----------------|--------||
! Variation 2
! Q=132
> (Am) (E) (Am) (E)
||-------------------|------------------|------------------|----------------||
||o------------------|------------------|------------------|---------------o||
||-----------------7-|-9-8-9-8-9-7------|----------------7-|-9-8-9-8-9\-----||
||--7-6-7-6-7-9-10---|-------------10-9-|-7-6-7-6-7-9-10---|------------2---||
||o------------------|------------------|------------------|---------------o||
||-------------------|------------------|------------------|----------------||
> (A) (Dm)
|-------------------------|-------------------------|
|-------------------------|-------------------------|
|-14-13-14-13-14-12-------|-------------------------|
|-------------------15-14-|-12-11-12-11-12-14-15-12-|
|-------------------------|-------------------------|
|-------------------------|-------------------------|
> (G) (C)
|-------------------------|-----------------------|
|-------------------------|-----------------------|
|-12-11-12-11-12-10-------|-----------------------|
|-------------------14-12-|-10-9-10-9-10-12-14-10-|
|-------------------------|-----------------------|
|-------------------------|-----------------------|
> (B7) (Am)
|----------------------|------------------|
|----------------------|------------------|
|-10-9-10-9-10---------|-9-8-9-8-9--------|
|--------------12-10-9-|-----------10-9-7-|
|----------------------|------------------|
|----------------------|------------------|
> (F7) (E) (Am)
|-------------------|-------------------||
|-------------------|-------------------||
|-----------10-9----|-------------------||
|-9-8-9-8-9---------|-------------------||
|----------------11-|-12-11-12-11-12----||
|-------------------|-------------------||
! Variation 3
! Q=72
> (Am) (E) (Am) (E)
||----------|------12--|---------|----11-13-12--||
||o-13---10-|-9S12-----|-13---10s|=12----------o||
||----------|-------9--|---------|-----8-10--9--||
||--10----7-|-6S=9-----|-10----7s|==9-----------||
||o---------|-------7--|---------|-----6--8--7-o||
||---8----5-|-4S=7-----|--8----5s|==7-----------||
> (A) (Dm) (G) (C)
|-17---9s|=10-12-13-14-|-15---7s|=8-10-11-12-|
|--------|-------------|--------|------------|
|-14---6s|==7--9-10-11-|-12---4s|=5--7--8--9-|
|--------|-------------|--------|------------|
|-12---4s|==5--7--8--9-|-10---2s|=3--5--6--7-|
|--------|-------------|--------|------------|
> (B7) (A) (F7) (E) (Am)
|-13------|-12------|----13-12---|---------||
|------12-|------10s|=12-------9s|=12--10--||
|-10------|--9------|----10--9---|---------||
|-------9-|-------7s|==9-------6s|==9---7--||
|--8------|--7------|-----8--7---|---------||
|-------7-|-------5s|==7-------4s|==7---5--||
! Variation 4
! Q=108
> (Am) (E)
||-----17-16-15-------------|-------------------------|
||o-------------19-18-14-16-|-18-17-16-18-17----------|
||--14----------------------|----------------16-------|
||--------------------------|-------------------18-14-|
||o-------------------------|-------------------------|
||--------------------------|-------------------------|
> (Am) (E)
|----17-16-15-------------|---------------------||
|-------------19-18-17-16-|-18-17-16-16-17\-5--o||
|-14----------------------|---------------------||
|-------------------------|---------------------||
|-------------------------|--------------------o||
|-------------------------|---------------------||
> (A) (A) (Dm)
|----17-16-15-14----------|----------------------------|
|----------------18-17-15-|-14-17----14-15p14----------|
|-14----------------------|-------14----------14-------|
|-------------------------|----------------------15----|
|-------------------------|-------------------------17-|
|-------------------------|----------------------------|
> (G) (G) (C)
|----15-14-13-12----------|----------------------------|
|----------------16-15-13-|-12-15p12----12-13----------|
|-12----------------------|----------12-------12-------|
|-------------------------|----------------------14----|
|-------------------------|-------------------------15-|
|-------------------------|----------------------------|
> (B7) (Am)
|----13-12-11-10----------|---12-11-10-9----------|
|----------------14-13-12-|--------------13-12-10-|
|-10----------------------|-9---------------------|
|-------------------------|-----------------------|
|-------------------------|-----------------------|
|-------------------------|-----------------------|
> (F7) (F7) (E) (Am)
|-------------------------|----17p12---------------||
|-------------------------|----------13------------||
|-------------------------|-------------14S9-------||
|-15-14-13-12-11----------|------------------10----||
|----------------15-14-11S|=12------------------12-||
|-------------------------|------------------------||
! Variation 5
! Q=116
> (Am) (E) (Am) (E)
! T T T T T T T T
||------------------|-----------------|-----------------|----------------||
||o-----------------|-----------------|-----------------|---------------o||
||------------------|----16p4-17p5----|-----------------|----16p4-17p5---||
||-----15p3-14p2----|-----------------|----15p3-14p2----|----------------||
||o-----------------|-----------------|-----------------|---------------o||
||--h5-----------h5-|-h4-----------h4-|-h5-----------h5-|-h4-------------||
> (A) (Dm) (G) (C)
! T T T T T T T T T
|----18p6-17p5----|----------------|-----------------|------------------|
|-----------------|----------------|----21p9-20p8----|------------------|
|-----------------|----------------|-----------------|------------------|
|-----------------|----------------|-----------------|------------------|
|-----------------|-h5-19p7-20p8---|-----------------|----18p6-19p7-----|
|-h9-----------h9-|--------------8-|-h7-----------h7-|-h8-----------h8--|
> (B7) (Am) (Dm) (E) (A)
! T T T T T T T T
|------------------|-----------------|-----------------|----------------||
|------------------|-----------------|----18p6-17p5----|----------------||
|------------------|-----------------|-----------------|----17p5--------||
|----22p10-21p9----|----18p0-19p7----|-----------------|---------19p7---||
|-h5------------h5-|-h7-----------h8-|--------------h7-|----------------||
|------------------|-----------------|-h5--------------|-h5-------------||
! Variation 6
! Q=84
> (Am) (E) (Am) (E)
||--12---10--8-|-7------------------|----------|-------------||
||o-13---12-10-|-9-10-9-------------|----------|------------o||
||-------------|---10-9-10--9-7-5-4-|-5---7--9-|-7-5-4-------||
||-------------|--------12-10-9-7-6-|-7---9-10-|-9-7-6-7-6---||
||o------------|--------------------|----------|-------8-7--o||
||-------------|--------------------|----------|-------------||
> (A) (Dm) (G) (C)
|---------|-----------9-10-12-13-|---------|----------7-8-10-12-|
|---------|-6-8-10-12------------|---------|-5-6-8-10-----------|
|-6---7-9-|----------------------|-4---5-7-|--------------------|
|---------|-----------7--9-11-12-|---------|----------5-7--9-10-|
|---------|-5-7--8-10------------|---------|-3-5-7--8-----------|
|-5---7-9-|----------------------|-3---5-7-|--------------------|
> (B7) (Am) (Dm) (E) (Am)
|-13---12-10-|-12---10-8-|---------------|--------||
|------------|-----------|-6-5-----------|--------||
|------------|-----------|-----7-5-5-4-4-|-5\--2--||
|-12---10--9-|-10----9-7-|---------7---6-|-7\-----||
|------------|-----------|-5-7-8-7---7---|-----0--||
|------------|-----------|---------------|--------||
! Variation 7
! Q=104
> (Am) (E)
||--12h13p12------------------|---------------------------|
||o----------13-(13)-10h12p10-|-12h13p12-9h10p9-----------|
||----------------------------|-----------------9h10p9----|
||----------------------------|---------------------------|
||o---------------------------|---------------------------|
||----------------------------|------------------------12-|
> (Am) (E)
|-12h13p12---------------|---------------------------||
|----------13-(13)-------|--------------------------o||
|------------------------|---------------------------||
|------------------------|---------------------------||
|------------------------|-------7h8p7-11h12p11-----o||
|------------------5h7p5-|-7h8p7----------------12---||
> (A) (Dm)
|-12h13p12------------------|-10h12p10-----------------------|
|----------14-(14)-10h11p10-|--------------------------------|
|---------------------------|--------------------------------|
|---------------------------|----------7h8p7-----------------|
|---------------------------|----------------8h10p8----------|
|---------------------------|-----------------------10h12p10-|
> (G) (C)
|-10h12p10----------------|-8h10p8---------------------|
|----------12-(12)-8h10p8-|----------------------------|
|-------------------------|----------------------------|
|-------------------------|--------5h7p5---------------|
|-------------------------|--------------7h8p7---------|
|-------------------------|--------------------8h10p8--|
> (B7) (Am)
|-10h12p10-13-(13)----------|-8h10p8-12-(12)--------|
|---------------------------|-----------------------|
|---------------------------|-----------------------|
|---------------------------|-----------------------|
|---------------------------|-----------------------|
|------------------10h12p10-|----------------8h10p8-|
> (B7) (E) (Am)
|-10h12p10-------7h8p7-------|-------5-7-5------||
|----------------------------|------------------||
|----------------------------|------------------||
|----------------------------|------------------||
|----------------------------|-------------0----||
|----------7h8p7-------4h5p4-|-5h7p5------------||
! Variation 8
! Q=84
> (Am) (E) (Am) (E)
||--0--0-0-0-|-0-7-7-0-|-0--0-0-0-|-0---------||
||o----------|-0-----0-|----------|-0-10-9---o||
||--5--9-7-5-|---------|-5--9-7-5-|----8-9-9--||
||--7-10-9-7-|-6-9-7-6-|-7-10-9-7-|-6------9--||
||o----------|---7-9---|----------|----8-7-7-o||
||-----------|---------|----------|-----------||
> (A) (Dm) (G) (C)
|-0-0--0-0-|-10-12-13-10-|---------|-0-1-3-0-|
|----------|-------------|-0-1-3-0-|---------|
|-6-7--9-6-|-10-12-14-10-|---------|-0-0-0-0-|
|-7-9-11-7-|--0--0--0--0-|-0-2-3-0-|---0-2---|
|----------|-------------|---------|-3-----3-|
|----------|-------------|-3-3-3-3-|---------|
> (B7) (Am) (A7)(F7) (E) (Am)
|---------|----------|---5-5-4-|-5-----||
|-6-3-5-6-|-5-3--1-2-|-3-----0-|-------||
|-4-4-4-4-|-5-4-12-0-|---5-5---|-5-----||
|-0-0-0-0-|----------|-3-------|-7--0--||
|---------|-3-2--0-0-|-5-6-7-7-|-------||
|---------|----------|---------|-------||
! Variation 9
! Q=108
> (Am) (E7)
! T T T T T T
||-----------------------|--------------------|
||o-13p10p5--------------|-12p9p5-15-12p5-9p5-|
||---------------h9------|--------------------|
||----------10p7----10p7-|--------------------|
||o----------------------|--------------------|
||-----------------------|--------------------|
> (Am) (E)
! T T T T T
|----------------------|-------------------||
|-13p10p5--------------|-12p9p5-----------o||
|--------------h9------|--------h9---------||
|---------10p7----10p7-|-----------9p6-----||
|----------------------|---------------h7-o||
|----------------------|-------------------||
> (A) (A7) (Dm) (G7) (C)
! T T T T T T T T T T T T T T
|-12p9p5-------------|-----10p5----------|-10p7p3------------|-----8p3---------|
|--------------------|-------------------|--------6p3--------|-----------------|
|--------9p6---------|----------10p7-----|-------------------|---------9p5-----|
|------------h7------|-------------------|------------9p3----|-----------------|
|---------------10p7-|-8p5-----------8p5-|----------------h5-|-7h9---------7p3-|
|--------------------|-------------------|-------------------|-----------------|
> (B7) (Am) (Dm) (E) (Am)
! T T T T T T T T T T
|-7p5p4p1---------|-----------------|--------------------|----------------||
|---------5p3p1p0-|-----------------|-----10p6------12p9-|----------------||
|-----------------|-----------------|--------------------|-14p9p5---------||
|-----------------|-7p5p3p2---------|--------------------|--------h7------||
|-----------------|---------5p3p2p0-|-8p5------11p7------|----------------||
|-----------------|-----------------|--------------------|-----------5----||
! Variation 10
! Q=50
> (Am) (E)
||--{5}-------{8}-|-{7}-{5}-------------------------|
||o-------{5}-----|---------{9}-{7}-{5}-{7}-{9}-{5}-|
||----------------|---------------------------------|
||----------------|---------------------------------|
||o---------------|---------------------------------|
||----------------|---------------------------------|
> (Am) (E)
|-{5}--({5})-{7}-{8}-{10}-|-{11}-{12}-------||
|-------------------------|-----------{6}--o||
|-------------------------|-----------------||
|-------------------------|-----------------||
|-------------------------|----------------o||
|-------------------------|-----------------||
> (A) (Dm)
|--------------{12}-{9}------|---------------------------------|
|-{10}--({10})----------{10}-|-{8}-----------------------------|
|----------------------------|-----{9}-{6}---------------------|
|----------------------------|-------------{7}-{5}-------------|
|----------------------------|---------------------{8}-{7}-{5}-|
|----------------------------|---------------------------------|
> (G) (C)
|------------{10}-{7}-----|----------------------------------|
|-{8}--({8})----------{8}-|-{6}------------------------------|
|-------------------------|-----{7}-{4}----------------------|
|-------------------------|-------------{5}-{3}--------------|
|-------------------------|---------------------{7}-{5}-{3}--|
|-------------------------|----------------------------------|
> (B7) (E7) (Am7)
|------------------------|-----------------------------------|
|-{6}--({6})-------------|-----------------------------------|
|------------{7}---------|-----------------------------------|
|----------------{9}-{7}-|-{6}----------------------{7}------|
|------------------------|-----{7}--------------{7}-----{10}-|
|------------------------|---------{10}-{7}-{8}--------------|
> (F7) (E) (Am)
|---------------------{7}---------|-----------------||
|-------------------------{9}-----|-----------------||
|-----{7}---------------------{9}-|-{9}S{10}\--{2}--||
|---------{9}-{7}-{6}-------------|-----------------||
|-{8}-----------------------------|-----------------||
|---------------------------------|-----------------||
! Variation 11
! Q=76
> (Am) (E) (Am) (E)
||-------------0-----|-------------4h7----16------{24}-|
||o------------0---5-|-----------5-----17----{24{------|
||----9---9--------5-|---------4-----------------------|
||----7---7----------|-------6-------------------------|
||o-7---7---11---7---|-----7---------------------------|
||--8---8----7---5---|-4h7-----------------------------|
> (Am) (E) (Am) (E)
|-------------0------|---12p7--------------||
|------------12---10-|--------9-----------o||
|---9---9----------5-|----------9----------||
|---7---7------------|------------9--------||
|-7---7---11----7----|-7------------11p7--o||
|-8---8----7----5----|-4-------------------||
> (A) (Dm) (A) (Dm)
|-------------------------|----------------------------17-22-|
|----14----14----15----17-|-------------------------18-------|
|-----9-----9----10----14-|----------------10h14-19----------|
|-------------------------|-------------12-------------------|
|-12----12----12----16----|----------12----------------------|
|--9-----9----10----12----|-13p10h13-------------------------|
> (G) (C) (G) (C)
|-----------------0-------|--------------------------15-20-|
|----12----12----13----15-|-----------------------17-------|
|-----7-----7----------12-|---------------9h12-17----------|
|-------------------------|------------10------------------|
|-10----10----10----14----|---------10---------------------|
|--7-----7-----8----10----|-12p8h12------------------------|
> (B7) (Am) (E) (Am) (E) (Am) (A7) (Am) (E)
|-----------------0-----0-|----------0-----0----14-|---------5h8---------4h7-||
|----15----15----13----12-|---10----12----13-------|-------5-----------5-----||
|----10----10-------------|----5----------------14-|-----5-----------4-------||
|-------------------------|------------------------|---7-----------6---------||
|-14----14----12----11----|-7----11----12----15----|-7-----------7-----------||
|-10----10-----8-----7----|-5-----7-----8----11----|-------------------------||
! Finale
! Freely Q=72
> (Am) (A)
||---------------------------|--------------------------|
||o-----------5-10p5---------|-----------5-10p5---------|
||----------5--------5-------|---------6--------6-------|
||--------7------------7-----|-------7------------7-----|
||o-----7----------------7---|-----7----------------7---|
||--5h8--------------------8-|-5h8--------------------8-|
> (Dm) (B#°(B°7(D°7) G#°7
|-------------------------17-22-|---------------------||
|----------------10----18-------|---3---6-----9---3--o||
|-------------10----19----------|---4---7----10---4---||
|----------12-------------------|-4---6----9----3-----||
|-------12----------------------|--------------------o||
|-10-13-------------------------|-3---7---10----4-----||
> (A) (A)
|--------------------------|-------------5-9p5-----------|
|-----------5-10p5---------|-----------5-------5---------|
|---------6--------6-------|---------6-----------6-------|
|-------7------------7-----|-------7---------------7-----|
|-----7----------------7---|-----7-------------------7---|
|-5h9--------------------9-|-5h9-----------------------9-|
> (A)
|-------------5h9-12p9-------------------|
|-----------5----------10----------------|
|---------6---------------9--------------|
|-------7-------------------11-----------|
|-----7------------------------12--------|
|-5h9-----------------------------12p9---|
> (A)
|-------------------12-17p12--------------------|
|-----------5----14----------14-----------------|
|---------6---14----------------14--------------|
|-------7--------------------------14-----------|
|-----7-------------------------------16p12-7-4-|
|-5h9-------------------------------------------|
> (A) (A)
|-------------|---------------|------*|
|-------------|---------------|------*|
|-------------|---------------|-6----*|
|-------------|---------------|-7----*|
|-0-2-0tr2----|-(0tr2)--------|-7----*|
|-------------|-----------4h5-|-5----*|
-
[E||------------------|-----------------|-----------------|-------------||
B||------------------|-----------------|-----------------|-------------||
G||*-----------------|--9--------------|-----------------|--9/--------*||
D||*--7---7-7h10h9h7-|-----------------|--7---7-7h10h9h7-|-------2----*||
A||------------------|------7-7h11h9h7-|-----------------|-------------||
E||------------------|-----------------|-----------------|-------------||
----------------------|----------------------|----------------------|
----------------------|----------------------|----------------------|
--14---14-14h15h14h12-|----------------------|--12---12-12h14h12h10-|
----------------------|--15---12-12h15h14h12-|----------------------|
----------------------|----------------------|----------------------|
----------------------|----------------------|----------------------|
----------------------|-------------------|-----------------|----------------|
----------------------|-------------------|-----------------|----------------|
----------------------|--10---------------|--9--------------|------8---9h7---|
--14---10-10h14h12h10-|-------9-9h12h10h9-|------7-7h10h9h7-|--------------9-|
----------------------|-------------------|-----------------|--8-----7-------|
----------------------|-------------------|-----------------|----------------|
------------||------8-12h8---------------|------------------------|
------------||---10--------10------------|----9-12h9--------------|
------------||*---------------9----------|--9--------9------------|
--7/--------||*------------------10------|-------------9----------|
-------0----||-----------------------12--|----------------11------|
------------||---------------------------|--------------------12--|
-----8-12h8---------------|-------------||-----12-17h12----------------|
--10--------10------------|-------------||--14----------14-------------|
---------------9----------|--9/--------*||-----------------14----------|
------------------10------|-------2----*||---------------------14------|
----------------------12--|-------------||-------------------------16--|
--------------------------|-------------||-----------------------------|
---------------------10--13--|-----10-15h10----------------|
-----------------10----------|--12----------12-------------|
--------------10-------------|-----------------12----------|
-----------12----------------|---------------------12------|
--------12-------------------|-------------------------14--|
--10h13----------------------|-----------------------------|
------------------8--12--|--13h10h7----------------|--12h8--------------------|
---------------8---------|----------9--------------|-------10-----------------|
-------------9-----------|------------10h7---------|----------9---------------|
----------10-------------|------------------9------|------------10------------|
-------10----------------|---------------------11--|---------------12---------|
--8h12-------------------|-------------------------|-------------------12h-8--|
-----------------------|------------||--------------------|-------------------|
-----------------------|------------||--------------------|-------------------|
---------7-10----9-----|------------||*-----------------7-|--9-8-9-8-9-7------|
-------9------------6--|--7/--------||*--7-6-7-6-7-9-10---|--------------10-9-|
-----8--------7--------|-------0----||--------------------|-------------------|
--10-------------------|------------||--------------------|-------------------|
-------------------|-----------------||--------------------------|
-------------------|-----------------||--------------------------|
-----------------7-|--9-8-9-8-9/----*||--14-13-14-13-14-12-------|
--7-6-7-6-7-9-10---|-------------2--*||--------------------15-14-|
-------------------|-----------------||--------------------------|
-------------------|-----------------||--------------------------|
--------------------------|--------------------------|------------------------|
--------------------------|--------------------------|------------------------|
--------------------------|--12-11-12-11-12-10-------|------------------------|
--12-11-12-11-12-14-15-12-|--------------------14-12-|--10-9-10-9-10-12-14-10-|
--------------------------|--------------------------|------------------------|
--------------------------|--------------------------|------------------------|
-----------------------|----------------|--------------------|
-----------------------|----------------|--------------------|
--10-9-10-9-10---------|--9-8-----------|------------10-9----|
---------------12-10-9-|---------10-9-7-|--9-8-9-8-9---------|
-----------------------|----------------|-----------------11-|
-----------------------|----------------|--------------------|
--------------------||---------------|---------12----|--------------|
--------------------||---13------10--|--9--12--------|--13------10--|
--------------------||*--------------|---------9-----|--------------|
--------------------||*--10------7---|--6--9---------|--10------7---|
--12-11-12-11-12----||---------------|---------7-----|--------------|
--------------------||---8-------5---|--4--7---------|--8-------5---|
------11--13--12---||--17------9--|--10--12--13--14--|--15------7--|
--12---------------||-------------|------------------|-------------|
------8---10--9---*||--14------6--|--7---9---10--11--|--12------4--|
--9---------------*||-------------|------------------|-------------|
------6---8---7----||--12------4--|--5---7---8---9---|--10------2--|
--7----------------||-------------|------------------|-------------|
--8--10--11--12--|--13----------|--12----------|------13--12-----|
-----------------|----------12--|----------10--|--12----------9--|
--5--7---8---9---|--10----------|--9-----------|------10--9------|
-----------------|----------9---|----------7---|--9-----------6--|
--3--5---6---7---|--8-----------|--7-----------|------8---7------|
-----------------|----------7---|----------5---|--7-----------4--|
--------------||------17-16-15-------------|--------------------------|
--12----10----||---------------19-18-17-16-|--18-17-16-18-17----------|
--------------||*--14----------------------|-----------------16-------|
--9-----7-----||*--------------------------|--------------------18-14-|
--------------||---------------------------|--------------------------|
--7-----5-----||---------------------------|--------------------------|
-----17-16-15-------------|----------------------||-----17-16-15-14----------|
--------------19-18-17-16-|--18-17-16-18-17/-5---||-----------------18-17-15-|
--14----------------------|---------------------*||--14----------------------|
--------------------------|---------------------*||--------------------------|
--------------------------|----------------------||--------------------------|
--------------------------|----------------------||--------------------------|
--------------------------|-----15-14-13-12----------|
--14-17----14-15----------|-----------------16-15-13-|
--------14-------14-------|--12----------------------|
--------------------15----|--------------------------|
-----------------------17-|--------------------------|
--------------------------|--------------------------|
--------------------------|-----13-12-11-10----------|----12-11-10-9----------|
--12-15----12-13----------|-----------------14-13-12-|---------------13-12-10-|
--------12-------12-------|--10----------------------|--9---------------------|
--------------------14----|--------------------------|------------------------|
-----------------------15-|--------------------------|------------------------|
--------------------------|--------------------------|------------------------|
--------------------------|-----17-12---------------||-------------------|
--------------------------|-----------13------------||-------------------|
--------------------------|--------------14-9-------||*------------------|
--15-14-13-12-11----------|-------------------10----||*-----15h3-14h2h---|
-----------------15-14-11-|--12------------------12h||-------------------|
--------------------------|-------------------------||---5------------5h-|
------------------|------------------|------------------||-----18h6-17h5h---|
-----16h4-17h5h---|------------------|-----16h4-17h5----||------------------|
------------------|------------------|-----------------*||------------------|
------------------|-----15h3-14h2h---|-----------------*||------------------|
------------------|------------------|------------------||------------------|
--4------------4h-|--5------------5h-|--4---------------||--9------------9h-|
------------------|------------------|------------------|-------------------|
------------------|-----21h9-20h8h---|------------------|-------------------|
------------------|------------------|------------------|-------------------|
------------------|------------------|------------------|-----22h10-21h9h---|
--5--19h7-20h8h---|------------------|-----18h6-19h7h---|--5-------------5h-|
---------------8--|--7------------7h-|--8------------8h-|-------------------|
------------------|------------------|-----------------||---12------10-8--|
------------------|-----18h6-17h5h---|-----------------||---13------12-10-|
-----18h6-19h7h---|------------------|-----17h5--------||*----------------|
------------------|------------------|----------19h7---||*----------------|
--7------------8h-|--5------------7h-|-----------------||-----------------|
------------------|------------------|--5--------------||-----------------|
--7------------------|--------------|----------------||-------------|
--9-10-9-------------|--------------|----------------||-------------|
----10-9-10-9--7-5-4-|--5------7-9--|--7-5-4--------*||--6------6-9-|
---------12-10-9-7-6-|--7------9-10-|--9-7-6-7-6----*||-------------|
---------------------|--------------|--------8-7-----||-------------|
---------------------|--------------|----------------||--5------7-9-|
------------9-10-12-13-|-------------|-----------7-8-10-12-|--13------12-10-|
--6-8-10-12------------|-------------|--5-6-8-10-----------|----------------|
-----------------------|--4------5-7-|---------------------|----------------|
------------7-9--11-12-|-------------|-----------5-7-9--10-|--12------10-9--|
--5-7-8--10------------|-------------|--3-5-7-8------------|----------------|
-----------------------|--3------5-7-|---------------------|----------------|
--12------10-8-|-----------------|------------||---12h13h12----------------|
---------------|--6--5-----------|------------||------------13----10h11h10-|
---------------|-------7-5-5-4-4-|--5/---2----||*--------------------------|
--10------9--7-|-----------7---6-|--7---------||*--------------------------|
---------------|--5--7-8-7---7---|-------0----||---------------------------|
---------------|-----------------|------------||---------------------------|
-----------------------------|--12h13h12-------------|
--12h13h12-9h10h9------------|-----------13----------|
------------------9h10h9-----|-----------------------|
-----------------------------|-----------------------|
-----------------------------|-----------------------|
-------------------------12--|-----------------5h7h5-|
----------------------------||--12h13h12----------------|
----------------------------||-----------14----10h11h10-|
---------------------------*||--------------------------|
---------------------------*||--------------------------|
--------7h8h7-11h12h11------||--------------------------|
--7h8h7----------------12---||--------------------------|
--10h12h10-----------------------|--10h12h10--------------|
---------------------------------|-----------12----8h10h8-|
---------------------------------|------------------------|
-----------7h8h7-----------------|------------------------|
-----------------8h10h8----------|------------------------|
------------------------10h12h10-|------------------------|
--8h10h8--------------------|--10h12h10-13-------------|--8h10h8-12-----------|
----------------------------|--------------------------|----------------------|
----------------------------|--------------------------|----------------------|
---------5h7h5--------------|--------------------------|----------------------|
---------------7h8h7--------|--------------------------|----------------------|
---------------------8h10h8-|-----------------10h12h10-|---------------8h10h8-|
--10h12h10-------7h8h7-------|--------5h7h5------||---0--0---0--0--|
-----------------------------|-------------------||----------------|
-----------------------------|-------------------||*--5--9---7--5--|
-----------------------------|-------------------||*--7--10--9--7--|
-----------------------------|--------------0----||----------------|
-----------7h8h7-------4h5h4-|--5h7h5------------||----------------|
--0--7--7-----|--0--0---0--0--|--0-------------||--0--0--0---0--|
--0--------0--|---------------|--0--10--9------||---------------|
--------------|--5--9---7--5--|-----8---9--9--*||--6--7--9---6--|
--6--9--7--6--|--7--10--9--7--|--6---------9--*||--7--9--11--7--|
-----7--9-----|---------------|-----8---7--7---||---------------|
--------------|---------------|----------------||---------------|
--10--12--13--10--|--------------|--0--1--3--0--|--------------|--------------|
------------------|--0--1--3--0--|--------------|--6--3--5--6--|--5--3--1--2--|
--10--12--14--10--|--------------|--0--0--0--0--|--4--4--4--4--|--5--4--2--0--|
--0---0---0---0---|--0--2--3--0--|-----0--2-----|--0--0--0--0--|--------------|
------------------|--------------|--3--------3--|--------------|--3--2--0--0--|
------------------|--3--3--3--3--|--------------|--------------|--------------|
-----5--5--4--|--5---------||-----------------------|---------------------|
--3--------0--|------------||---13h10h5-------------|--12h9h5-15t12h5h9h5-|
-----5--5-----|--5---------||*---------------9------|---------------------|
--3-----------|--7---------||*----------10h7h--10h7-|---------------------|
--5--6--7--7--|-------0----||-----------------------|---------------------|
--------------|------------||-----------------------|---------------------|
----------------------|-------------------||--12h9h5------------|
--13h10h5-------------|--12h9h5h----------||--------------------|
---------------9------|---------9--------*||---------9h6h-------|
----------10h7h--10h7-|-----------9h6h---*||-------------7------|
----------------------|---------------7---||---------------10h7-|
----------------------|-------------------||--------------------|
------10h5----------|--10h7h3h----------|------8h3---------|--7h5h4h1---------|
--------------------|---------6h3-------|------------------|----------5h3h1h0-|
-----------10h7-----|-------------------|----------9h5-----|------------------|
--------------------|-------------9h3h--|------------------|------------------|
--8h5-----------8h5-|-----------------5-|--7h3---------7h3-|------------------|
--------------------|-------------------|------------------|------------------|
------------------|---------------------|----------------||---5--------8-|
------------------|------10h6------12h9-|----------------||----------5---|
------------------|---------------------|--14h9h5h-------||*-------------|
--7h5h3h2h--------|---------------------|---------7------||*-------------|
----------5h3h2h0-|--8h5------11h7------|----------------||--------------|
------------------|---------------------|-----------5t---||--------------|
--7-5-------------|--5-----7-8-10-|--11---12-------||---------12-9----|
------9-7-5-7-9-5-|---------------|----------------||--10----------10-|
------------------|---------------|----------9----*||-----------------|
------------------|---------------|---------------*||-----------------|
------------------|---------------|----------------||-----------------|
------------------|---------------|----------------||-----------------|
------------------|--------10-7---|------------------|--------------|
--8---------------|--8----------8-|--6---------------|--6-----------|
----9-6-----------|---------------|----7-4-----------|--------7-----|
--------7-5-------|---------------|--------5-3-------|----------9-7-|
------------8-7-5-|---------------|------------7-5-3-|--------------|
------------------|---------------|------------------|--------------|
--------------------|------------7-----|-------------||--------------0-----|
--------------------|--------------9---|--10/--------||--------------0---5-|
--------------------|----7-----------9-|--------2----||*----9---9--------5-|
--6------------7----|------9-7-6-------|-------------||*----7---7----------|
----7--------7---10-|--8---------------|-------------||---7---7---11---7---|
------10-7-8--------|------------------|-------------||---9---8---7----5---|
-------------------------19-24-|-------------0-------|----12h7--------------||
--------------9-12-17-21-------|-------------12---10-|---------9------------||
------------9------------------|----9---9---------5--|-----------9---------*||
------2-6-9--------------------|----7---7------------|-------------9-------*||
----2--------------------------|--7---7---11----7----|--7------------11-----||
--4----------------------------|--8---8---7-----5----|--4---------------12--||
--------------------------|-----------------------------17-22-|
-----14----14----15----17-|--------------------------18-------|
-----9-----9-----10----14-|-----------------10-14-19----------|
--------------------------|--------------12-------------------|
--12----12----12----16----|-----------12----------------------|
--9-----9-----10----12----|--13h10h13-------------------------|
-----------------0--------|---------------------------15-20-|
-----12----12----13----15-|------------------------17-------|
-----7-----7-----------12-|----------------9-12-17----------|
--------------------------|-------------10------------------|
--10----10----10----14----|----------10---------------------|
--7-----7-----8-----10----|--12h8h12------------------------|
-----------------0-----0--|----------0-----0--------|----------5h8---------4h7-|
-----15----15----13----12-|----10----12----13----19-|--------5-----------5-----|
-----10----10-------------|----5-----------------17-|------5-----------4-------|
--------------------------|-------------------------|----7-----------6---------|
--14----14----12----11----|--7----11----12----15----|--7-----------7-----------|
--10----10----8-----7-----|--5----7-----0-----11----|--------------------------|
|---------------5-----------|--------------5-----------|
|-------------5---5---------|------------5---5---------|
|*----------5-------5-------|----------6-------6-------|
|*--------7-----------7-----|--------7-----------7-----|
|-------7---------------7---|------7---------------7---|
|---5h8-------------------8-|--5h9-------------------9-|
--------------------------17-22-|---------------------||
-----------------10----18-------|----3---6----9----3--||
--------------10----19----------|----4---7----10---4-*||
-----------12-------------------|--3---6---9-----3---*||
--------12----------------------|---------------------||
--10-13-------------------------|--4---7---10----4----||
--------------5-----------|--------------5-9h5-----------|
------------5---5---------|------------5-------5---------|
----------6-------6-------|----------6-----------6-------|
--------7-----------7-----|--------7---------------7-----|
------7---------------7---|------7-------------------7---|
--5h9-------------------9-|--5h9-----------------------9-|
--------------5h9-12h9h5-----------|--------------5h9-12t17t12h9h5-----------|
------------5------------5---------|------------5------------------5---------|
----------6----------------6-------|----------6----------------------6-------|
--------7--------------------7-----|--------7--------------------------7-----|
------7------------------------7---|------7------------------------------7---|
--5h9----------------------------9-|--5h9----------------------------------9-|
--------------------------|--------------------------|--5--------||
--------------------------|--------------------------|--5--------||
--------------------------|--------------------------|--6--------||
--------------------------|--------------------------|--7--------||
--------------------------|--------------------------|--7--------||
--5h7h5h7h5h7h5h7h5h7h5h7h|--5h7h5h7h5h7h5h7h5h7h4h5-|--5--------||]
-
!Обозначения:
!0/
!/0: повторить последнюю строку
!0///
!///0: повтроить последние 3 строки
!----___---
!----5-7--- короткие ноты
!----------
!Замечание: многие пуллы и хаммеры не подписаны
!0:00-56
[|---------------------------------|----|
|---------5---------------5-------|----|
|-2--225424-------2--225424-------|-0/-|
|-2-------6----64-2-------6-------|-/0-|
|-3----------77--73-----------7---|----|
|-5---------------5---------------|----|
|-5--5565---------3--3353----------------------------------------|
|-5------86----65-3------65----53-6-------5---------4553---------|
|-6-------7--77--74-------5--55--5---447545----54---22--42-------|
|---------7---------------5-------7-------7--77--73--2-----------|
|---------5---------------3-------5-------7------------------0---|
|-5---------------3----------------------------------------------|
|-5--5565---------3--3353----------------------------------------|
|-5------86----65-3------65----53-6-------5---------4553---------|
|-6-------7--77--74-------5--55--57----75-2--22542--22--42-------|
|---------7---------------5-------8--88--8--------3--2-----------|
|---------5---------------3-------5-------3------------------0---|
|-5---------------3----------------------------------------------|
_______ _____ _______
|----8-12-8-------------4-7-4------------8-12-8---------------------|----|
|-10--------10\-5-----5-------5-------10--------10\-5-----5---------|----|
|-----------------5-------------4---------------------5---4---------|-0/-|
|-------------------7-------------6---------------------7-6---------|-/0-|
|-(0)-------------------------------7-(0)-----------------7---------|----|
|---------------------(0)---------------------------------------0---|----|
________ ________
|----12-17-12-----------------------10-13----10-15-10--------------------8-12-|
|-14----------14\-10-------------10-------12----------12\-8------------8------|
|--------------------9------7-10----------0-----------------7--------9--------|
|----------------------11-0-----------------------------------9---10----------|
|-(0)-------------------------------------------------------------------------|
|---------------------------------------------------------------8-------------|
_____ ____
|-13p10------------------12p8------------------1---0-------------|-----|
|-------12--------------------10-----------0-3-------------------|-----|
|----------13-10-----------------9-5-----------------1-2---------|-0//-|
|----------------12-9----------------7-----0-----2---------------|-//0-|
|---------------------11---------------7---------------------0---|-----|
|----------------------------------------8-----------------------|-----|]
!...
!2:25-52
|------17-16-15-14-13-12-11-13p12-11-13-12-7--------|
|--------------------------------------------9------|
|-14-------------------------------------------9/13-|
|---------------------------------------------------|
|---------------------------------------------------|
|---------------------------------------------------|
|------17\-16-15-14-13-12-11-13-12-11-13-12--------|-----|
|--------------------------------------------------|-----|
|-14-------------------------------------------9---|-0//-|
|--------------------------------------------------|-//0-|
|--------------------------------------------------|-----|
|--------------------------------------------------|-----|
|------17-16-15-14-13-12-10-9-12----9-10-----------|
|--------------------------------10------10--------|
|-14----------------------------------------10\-7/-|
|--------------------------------------------------|
|--------------------------------------------------|
|--------------------------------------------------|
|-----15-14-13-12-11-10-8-7-10---7-8--------|
|------------------------------8-----8------|
|-12-----------------------------------9-5/-|
|-------------------------------------------|
|-------------------------------------------|
|-------------------------------------------|
|----13-12-11-10-9-8-7----12-11-10-9-8-7-5-|
|------------------------------------------|
|-10-------------------9-------------------|
|------------------------------------------|
|------------------------------------------|
|------------------------------------------|
|---------------------17-12---------------|
|-6p5-----------------------13----5-------|
|-----8-7-6p5-4----------------14---5-----|
|---------------6---------------------7..-|
|-----------------12----------------------|
|-----------------------------------------|
!...
!3:55-5:35
|-12h13p12--------5h7p5-7h8p7-4h5p4-0h1p0------|
|----------13----------------------------------|
|----------------------------------------------|
|-----------------------------------------2----|
|----------------------------------------------|
|----------------------------------------------|
|-12h13p12---------------------------------------|-12..----|
|----------13------------------------------------|---------|
|------------------------------------------------|-----0//-|
|------------------------------------------------|-----//0-|
|-----------------0h2p0-2h3p2-7h8p7-11h12p11-----|-0..-----|
|--------------------------------------------0---|---------|
|-12h13p12-----------------10h12p10---------------------|
|----------14-----10h11p10------------------------------|
|-------------------------------------------------------|
|-----------------------------------7h8p7-3h5p3-0h2p0---|
|-0-----------------------------------------------------|
|-------------------------------------------------------|
|-10h12p10---------------8h10p8-------------------|
|----------12-----8h10p8--------------------------|
|-------------------------------------------------|
|-------------------------------5h7p5-2h3p2-------|
|-10----------------------------------------3h5p3-|
|-------------------------------------------------|
|-10h12p10-13--------------8h10p8-12-------------|
|------------------------------------------------|
|------------------------------------------------|
|------------------------------------------------|
|------------------------------------------------|
|-10--------------10h12p10----------------8h10p8-|
|-10h12p10-------7h8p7-------------5h7p5-----|-------|
|--------------------------------------------|-------|
|--------------------------------------------|-0////-|
|--------------------------------------------|-////0-|
|--------------------------------------------|-------|
|----------7h8p7-------4h5p4-5h7p5-------5---|-------|
|-0---0---0---0---0---7--7---0---0---0---0---0---0---5---5---0---|
|-1---5---3---1---0---0--0---0---1---5---3---1---0---4---4---0---|
|-2---5---4---2------------------2---5---4---2-------------------|
|-----------------6------4---6-------------------6---3---2---2---|
|---------------------7------------------------------------------|
|----------------------------------------------------------------|
|----0--0-0-0-0-0-0-0-0-7-7-7-0-0-0-0-0-0-0-0-0-0-0-0-0-5-5-4-4-0--|
|---1----5---3---1---0---0---5---0---1---5---3---1---0---4---5---0-|
|--2---5---4---2-------------------2---5---4---2------------------1|
|------------------6-------4---6-------------------6---3---2---2---|
|-0--------------------7-------------------------------------------|
|------------------------------------------------------------------|
|---------0--0--0-0-10--10-12--12-13--13-10--10|
|----3---5--5----------------------------------|
|---4---7--6--6--6----10-----12-----14-----10--|
|--5---9-------7---0------0------0------0------|
|-0--------------------------------------------|
|----------------------------------------------|
|-----------------0-0-1-1-3-3-0-0----------------|
|-0-0-1-1-3-3-0-0-----------------6-6-3-3-5-5-6-6|
|------------------0---0---0---0---4---4---4---4-|
|--0---2---3---0-----0---2-------0---0---0---0---|
|----------------3-----------3-------------------|
|3---3---3---3-----------------------------------|
|--0----------------------5-5---5----5454---5-------------|
|---10-3---1-1-2-2---3----------------------5-------------|
|-------4---0---0----------5----5-----------5-------------|
|--------4-----------3------------------------------------|
|-3---2---0---0------5---6------7-----------7-------------|
|-----------------------------------0---------------5-----|
!'pizzicato'
|-8p5-------------7p4---10p7-------8p5-------------7p4-------------|----|
|-----5-----5---------5--------9-------5-----5---------5-5---------|----|
|-------5-----5--------------9---9-------5-----5-----------4-------|-0/-|
|---------7-----7--------------------------7-----7-----------6-----|-/0-|
|--------------------------------------------------------------7---|----|
|------------------------------------------------------------------|----|
|-12p9-5p0-------------10------------10p7-----------------8-----------|
|-------------------------10-6------------8p6---------------8-5-------|
|----------6p2-----------------7--------------7p4---------------5-----|
|--------------5p2-3p0----------------------------3p0-----------------|
|--------------------------------8p5------------------7p3---------7p3-|
|---------------------------------------------------------------------|
|-7-5-4------------------------------=---------------5p0---------|-----|
|-------6\5-3-------------------------10p6------12p9-------------|-----|
|-------------5-4-2-0------------------------------------5-------|-0//-|
|---------------------3-2-0--------------------------------7-----|-//0-|
|---------------------------3-2-0-8p5------11p7--------------0---|-----|
|----------------------------------------------------------------|-----|
!...
!6:13-
[|---0---0---0---0-------___-----7-12-|
|---1---1---0---0---__----0---9------|
|---2-2-2---1-2------1---1--9--------|
|-2---2---2---2---------2------------|
|-3---3---2---0-----2-2--------------|
|-----------------4------------------|
|---0---0---7---5---0-12-7---0-------|-----|
|-----------5---5---0------9---0-----|-----|
|---2---2-------5----------------1---|-0//-|
|-----------6------2---------------2-|-//0-|
|-3---3------------------------------|-----|
|---------7---5---4------------------|-----|
___
|---9----9-----10----12---___----5----5-10-|
|--------------------10-----6---6---6------|
|---9----9-----10----------7---7--7--------|
|-------------------------7--7-------------|
|---12---12----12-------5------------------|
|-9----9----10----12-----------------------|
|---7---7----8---10-----------____--------8-|
|-----------------0---_____------8------8---|
|---7---7----9----0-------9-----9-----9-----|
|---5---5---10----------10----10---10-------|
|---------------------10---10---------------|
|-7---7---8----10---8-----------------------|
|----10----10---8---7---5/---7---8-----14---|
|-------------------5---5/---9---10----13---|
|----10----10---9-------5/---7---9-----14---|
|----9-----9----7---6-----------------------|
|-------------------------------------------|
|-10----10----8---7---5----7---8----11------|
|---------5-8------------4-7-|
|-------5--------------5-----|
|-----5--------------4-------|
|---7--------------6---------|
|-7--------------------------|
|---------------0------------|
|-------------5-----------------------5-----------------------------------10--|
|-----------5---5-------------------5---5---------------------10-------10-----|
|---------5-------5---------------6-------6----------------10-------10--------|
|-------7-----------7-----------7-----------7---------7-12-------12-----------|
|-----7---------------7-------7---------------7-4-5/8-------------------------|
|-5h8-------------------8-5h9-------------------------------------------------|
|-----7-------10--------13-------7---|-----|
|-----6--------9--------12-------6---|-----|
|-----7-------10--------13-------7---|-0//-|
|------------------------------------|-//0-|
|------------------------------------|-----|
|-4-------7--------10--------4-------|-----|
|-------------5--------------------------5--9-5------------|
|-----------5---5---------------------5---------5----------|
|---------5-------5-----------------6-------------6--------|
|-------7-----------7-------------7-----------------7------|
|-----7---------------7--------7----------------------7----|
|-5h9-------------------9--5h9--------------------------9--|
|------------------9-12-9-----------------|
|---------------10--------10--------------|
|----------6/-9--------------9\--6--------|
|--------7-------------------------7------|
|-----7------------------------------7----|
|-5h9----------------------------------9--|
|------------------9/-12--17p12-9----------------------|
|---------------10----------------10-------------------|
|----------6/-9----------------------9---6-------------|
|--------7---------------------------------7-----------|
|-----7--------------------------------------7-4--0----|
|-5h9--------------------------------------------------|
|---------------------------------------------------5---|
|---------------------------------------------------5---|
|-3--2--3--2--3-2-3----3p2h3---3p2h3---3p2h3--------6---|
|---------------------------------------------------7---|
|-------------------0--------1-------0--------------7---|
|--------------------------------------------4--5---5---|]
Документ
Категория
Ноты, аккорды
Просмотров
20
Размер файла
59 Кб
Теги
каприз, паганини, никколо
1/--страниц
Пожаловаться на содержимое документа