close

Вход

Забыли?

вход по аккаунту

?

Паганини Никколо - Каприз №3

код для вставкиСкачать
йЮОПХГ ╧3
!
Sostenuto
!
!
!
(*DTR.*)
i a i m p a i m p a i m
p
[E||-----------2----3----|-----------------------------|
B||--5------------------|----1---1---1---1---1---1----|
G||---------------------|--4---4---4---4---4---4------|
D||--2--------4----5----|-----------------------------|
A||---------------------|--2h3p2h3p2h3p2h3p2h3p2h3p2--|
E||--0--------2----3----|-----------------------------|]
4
1
1
4 3 similie
1
3
3
2 1
1
1
!
!
!
!
!
!
II
III
!
!
!
(*DTR.*)
i a i m p a i m p a i m
III
V
VII
p
[--3--------5----7----|----0---0---0---0---0---0----|
---------------------|--3---3---3---3---3---3------|
---------------------|-----------------------------|
--5--------7----9----|--0h2p0h2p0h2p0h2p0h2p0h2p0--|
---------------------|-----------------------------|
--3--------5----7----|-----------------------------|]
1
1
1
2 1 similie
3
3
3
1
1
1
!
!
*бяе дбнимше рпекх асдср нангмювюрэяъ(*DTR.*)
*мн хцпюрэ ху йюй сйюгюмн бшье
!
!
[-----------------------------------|
--13----12-10-8----------------13--|
--------------0-11-9-8-------------|
--10----9--7-----------10-9-7--10--|
----------------9--7-6------0------|
-----------------------8--7--------|]
4
4 4 2 4 4 3 2 1 1 4
1
1 1
3 1 1 4 4
1
[---------------------------------|--------------------------
----|
--12----10-8-7---------------12--|--10----8-7-5-4-8-----7-5----|
-----------0---9-7--------0------|--------0----------------5-3-|
--9----------4-----10-9-7----9---|--7--------------------------|
--------0------7-5------0--------|----------9-7-6-10----9-73-1-|
-------------------8--7---3------|-----------------------------|]
!
4
!
2
!
4
1
4
4 4 4 3 4
1 2 1 2
3 3 1
4
4
2 1 1 1 1
1
4
1
1
1
3 3 3 3
3
1
(*DTR.*)
(*DTR.*)
[-------------------|--12--------14----15----|-----8---------
----|
-----1-------------|------------------------|--12----12--------|
-3/4---4-----------|--9---------11----12----|------------------|
-------------------|------------------------|--9h-10p9---------|
-1/2h3p2-----------|------------------------|------------------|
-------------------|------------------------|------------------|]
!
!
4 4 3 4
2 2 1 2
4
1
4
1
4
1
4
2
3
1
4
2
!
(If you're like me,
your classical)
!
(guitar only has 19
frets, so if)
!
(You're feeling daring
you can )
!
(try for the artificial
harmonic)
!
(at fret 8 (20), on the
high "E")
!
XII
(and pluck fret 13 on
the "B"
)
!
(*DTR.*)
[\/]
[--15--------17----19----|-----12-------------|--11-------20--------|
------------------------|--15----15----------|---------------------|
--12--------14----16----|--------------------|--8---------17-------|
------------------------|--12h14p12----------|---------------------|
------------------------|--------------------|---------------------|
------------------------|--------------------|---------------------|]
!
4
4
4
4 2 4
4
4
!
1
1
1
1 3 1
1
1
[--19----12------13-12-13-15-17-19-20-|--20\12------15\14-15---15----|
-------------------------------------|---------------------19----19-|
--16----9-------10-9--10-12-14-16-17-|--17\9------------------------|
-------------------------------------|-------------17\16------------|
-------------------------------------|------------------------------|
-------------------------------------|------------------------------|]
!
1 4
!
!
!
!
!
X
!
(*.DTR.*)
4
4
4
4
4
4
4
4
4
4
4
1
1
1
1
1
1
1
1
1
1
1
1
1
3
3
1 4
(ткюф)
(*DTR.)
[--12-----------------|------------------------8-------|
---------------------|----------------9-10-12----12---|
---------------------|---------7-9-11-----------------|
----------------6----|--7-9-10--------6-7--9h-10p9----|
---------------------|---------5-7-9------------------|
--12------------4----|--5-7-8-------------------------|]
(ткюф)
4
4 4 4 4 4 4 4 4 4 1 4
1
1 1 1 1 1 1 1 1 2 3 2
(*DTR.*)
[----------------------------------|--0----------3------|--0----------10----|
--13-----------13--12--13--10--6--|---------8/7---7----|----------13----13-|
----------------------------------|--------------------|-------------------|
--10----7------10--9---10--7---3--|--2------5/4h5p4----|--2-------10h12p10-|
----------------------------------|--------------------|-------------------|
--------5-------------------------|--------------------|-------------------|]
!
4
4
4
4
4
4
4
1
4 4 1 4
1
3 1 3
!
1
1
1
1
1
1
1
2 2 3 2
1 2 1
!
!
VII
II
III
(*DTR.*) (*DTR.*)
(*DTR.*) (*DTR.*)
(*DTR.*) (*DTR.*)
[-----7--------8-----|----2----------------|-----------------
---|
--10---10--12----12-|--5---5------3-------|----0--------1-----|
--------------------|-----------5---5-----|--2---2----4---4---|
--7h-9p7---9h-10p9--|--2h4p2--------------|-------------------|
--------------------|-----------3h5p3-----|--0h2p0----2h3p2---|
--------------------|---------------------|-------------------|]
!
!
!
4
1
1 4
3 1
4
2
1
3
4
2
4 1 4
1 3 1
3 1 3
1 2 1
2 1 2
4 1 4
2 3 2
(*DTR.*)
PRESTO!
[-------------------|--------0---0-|------6/7------|--------
0-----|
-------------------|------0---9---|----0-----8h10-|--9---7------|
-------------------|--------------|---------------|----8----5h8-|
----4--------------|----6---------|--8------------|-------------|
--7---7------------|--7-----------|---------------|-------------|
--0h2p0------------|--0-----------|---------------|-------------|]
!
1 4
!
4 2 4
2 1
4
3
1
2 4
3 2 1
1
[--------------|--------------|--------------|--7------------|--------------|
------0-------|--------------|------0---7-9-|----10-6h8-----|------0-------|
--6-----------|--------------|----5---8-----|-----------8---|----6---------|
----6---7-----|--------------|--7-----------|-------------10|--8-----6-----|
----------8h9-|--6h9-----6h9-|--------------|---------------|----------6h7-|
--------------|------8p7-----|--------------|---------------|--------------|]
!
2 1
2 3 4
1 4 3 2 1 4
2 1
2 1 3
1 4 1 3 2 4
3 1
2 1 3
[--4---------5-|--3h4---------|----0---------|-------------|------7-------|
----7p4-------|------4h5-----|--7---------9-|--6h7-------0-|-9-----9-7---|
--------6-5---|----------5h6-|------6-------|------7/8-----|---9---------|
--------------|--------------|--------9-8---|----------8---|-------------|
--------------|--------------|--------------|--------------|-----------6-|
--------------|--------------|--------------|--------------|-------------|]
!
4 3 1 4 2 1
1 4 1 3 3 4
1 2 1 2 1 2
2
1 4 3 4
1 3 2 2 1
[--0-----0-----|--------------|--------------|----0--------|--------7p6-5-|
------9-------|----0---------|----------0---|------------7-|-----0-------|
----6-----8---|------------6-|--------8-----|------6-------|-8p6---------|
--------------|------6-------|--8-6-------8-|--6-----9-8---|-------------|
--------------|--7-----9-8---|------9-------|--------------|-------------|
------------7-|--------------|--------------|--------------|-------------|]
!
1 4
3 2
3
1 4 3 1
3 1 4 3
2
1
2 4 3 2
3 1
3 2 1
[------7-------|------------7-|--------------|----7----7------|
--7-8---8---0-|----0---0-----|--7-----------|------11--10h11-|
----------7---|--0-----------|----8---------|----------------|
--------------|--------------|--------------|----------------|
--------------|------9---8---|------9p6-7---|----------------|
--------------|--------------|------------9-|--7-------------|]
!
3 3 2 3 1
3
2 1
1 2 4 1 2 4
1 1 4
1
3 4
[---------------|----------------|--------------|----------|-------0---0-|
--8h9----7-----|--------------0-|--------------|-----0----|-----0---9---|
------10---8h9-|--7h8-----------|--0h1---------|-----4----|-------------|
---------------|------10h11-8---|------4p1-2---|----------|---6---------|
---------------|----------------|------------4-|--2-------|-7-----------|
---------------|----------------|--------------|----------|-0-----------|]
!
2 3 4 1 2 3
1 2 3 4 1
1 4 1 2 4
1 4
2 1
4
[------6/7------|--------0-----|--------------|-------------|--------------|
----0-----8h10-|--9---7-------|------0-------|-------------|------0---7-9-|
---------------|----8-----5h8-|--6-----------|-------------|----5---8-----|
--8------------|--------------|----6---7-----|-------------|--7-----------|
---------------|--------------|----------8h9-|--6h9-----6h9|--------------|
---------------|--------------|--------------|------8p7----|--------------|]
!
3
1
2 4
3 2 1
1 4
2 1
2 3 4
1 4 3 2 1 4
2 1
2 1 3
[--7-------------|--------------|--4---------5-|--3h4--------|----0---------|
----10-6h8------|------0-------|----7h4-------|------4h5----|--7---------9-|
-----------8----|----6---------|--------6-5---|----------5h6|------6-------|
-------------10-|--8-----6-----|--------------|-------------|--------9-8---|
----------------|----------6h7-|--------------|-------------|--------------|
----------------|--------------|--------------|-------------|--------------|]
!
1 4 1 3 2 4
3 1
2 1 3
1 4 1 3 3 4
1 2 1 2 1 2
2
1 4 3 4
[--------------|------7-------|--0-----0-----|-------------|--------------|
--6h7-------0-|--9-----9-7---|------9-------|----0---------|---------0---|
------7h8-----|----9---------|----6-----8---|------------6-|-------8-----|
----------8---|--------------|--------------|------6-------|-8-6-------8-|
--------------|------------6-|--------------|--7-----9-8---|-----9-------|
--------------|--------------|------------7-|--------------|-------------|]
!
1 3 2 2 1
4 3 1 4 2 1
1 4
3 2
3
1 4 3 1
3 1 4 3
2
[----0---------|--------7p6-5-|------7-------|------------7|--------------|
------------7-|------0-------|--7-8---8---0-|----0---0-----|-7-----------|
------6-------|--8p6---------|----------7---|--0-----------|---8---------|
--6-----9-8---|--------------|--------------|--------------|-------------|
--------------|--------------|--------------|------9---8---|-----9p6-7---|
--------------|--------------|--------------|--------------|-----------9-|]
!
1
2 4 3 2
3 1
3 2 1
3 3 2 3 1
3
2 1
1 2 4 1 2 4
[----7----7-------|---------------|----------------|-------------|----------|
------11---10h11-|--8h9----7-----|--------------0-|-------------|-----0----|
-----------------|------10---8h9-|--7h8-----------|--0h1--------|-----4----|
-----------------|---------------|------10h11-8---|------4p12---|----------|
-----------------|---------------|----------------|-----------4-|--2-------|
--7--------------|---------------|----------------|-------------|----------|]
!
1 1 4 1 3 4
2 3 4 1 2 3
1 2 3 4 1
1 4 1
2 4
1 4
!
VII
[--------------|------7-------|--------------|------7------|-----8---8---8-|
--------0---0-|--7-----7-----|------------0-|--7-----7-----|--------------|
----------8---|----8-----8---|----------7---|----7-----7---|--------------|
------4-------|------------9-|----0---9-----|------------9-|-10---9---7---|
----6---------|--------------|------9-------|--------------|--------------|
--7-----------|--------------|--7-----------|--------------|--------------|]
!
4 3 1
2
1 2 1 1 2 3
1
3 4 1
1 1 1 1 1 3
4 2 3 2 1 2
[-----8---8---8-|--------------|----10-9/10-------|----8-7/8------|
---------------|--------------|------------12----|---------10----|
---------------|--------------|---------------12-|--9---------11-|
---------------|--0h2-0-------|------------------|---------------|
--10---9---7---|--------2h3p0-|------------------|---------------|
---------------|--------------|--3---------------|---------------|]
!
4
4 2 3 2 1
1
1 2
1
2 1 1
4
3
3 2 1 1 3
[----7-6/7-----|----5-4/5-----|--------------|-----0---0---0|----0---0---0-|
----------8---|----------6---|----8-7/8-6---|--------------|--------------|
--8---------9-|--6---------7-|------------7-|--------------|--0-----------|
--------------|--------------|--9-----------|--10---9---7--|------3---2---|
--------------|--------------|--------------|--------------|--------------|
--------------|--------------|--------------|--------------|--------------|]
!
3 2 2 2 3 4
3 2 1 1 2 3
4 3 3 3 1 2
4
3
1
2
1
[--------------|--------------|------0-------|-------------|----3---3-----|
--------------|--------------|----6---6-----|----4---4-----|-----7-----0-|
----5---5---5-|----5---5---5-|----------5---|------7---5---|-0-------7---|
--7---5-------|------0-------|------------7-|--4---------7-|-------------|
----------8---|--7-----------|--8-----------|--------------|-------------|
--------------|----------8---|--------------|--------------|-------------|]
!
3 1 1 1 4 1
3 1
1 4 1
4 2
2 1 3
1 1 4 1 2 4
1 4 1 4
[--------------|--------------|------0---5---|-------------|--------------|
----6---6---0-|----5-----6---|----8-------6-|------0---5---|---6-----8---|
------9---7---|------6-----7-|--------------|----7-------5-|-----7-----8-|
--6-----------|--7-----7-----|--7-----7-----|--5-----5-----|-5-----5-----|
--------------|--------------|--------------|--------------|-------------|
--------------|--------------|--------------|--------------|-------------|]
!
1 1 4 1 2
3 1 2 3 1 2
3 4
3 1 2
1 3
1 1 1
1 2 3 1 4 4
[--------------|--------------|--------------|-------------|--------------|
--------------|--------------|----------3---|------5-6---4p|-3-----------|
----5-----7---|----8-5-------|--------3---3-|----------6---|-----5p3-----|
------7-----8-|--------7-----|------3-------|----3---------|---7-----4-7-|
--8-----8-----|--8-------6p3-|----5---------|--7-----------|-------------|
--------------|--------------|--6-----------|--------------|-------------|]
!
3 1 2 3 2 4
4 3 1 2 4 1
4 3 1 1 1 1
4 1 2 4 3 2
1 4 2 1 1 4
[--------------|--------------|---------------8-|--11p8----------|
--------------|--------------|-------7----10---|-------10---7---|
--0-----------|--------------|-----8---10------|----------10--8-|
------3-------|--------4p3-7-|--10-------------|----------------|
----5---6-3---|----3h6-------|-----------------|----------------|
------------6-|--5-----------|-----------------|----------------|]
!
2 3
3 1 4 1 4
3 1 4 2 1 4
4
2 1 3
4
1
4
1 4
3
[--------------|--------------|--------------|--------4----|--6-----------|
----4---------|----------3---|----------4---|----------6---|---8---------|
--6---7---5---|----2---4---5-|----3---6---7-|----5-------7-|-----8---0---|
--------7---8-|--4---5-------|--6---7-------|--7---8-------|-------6-----|
--------------|--------------|--------------|--------------|-----------6-|
--------------|--------------|--------------|--------------|-------------|]
!
3 1 4 3 2 4
2 1 4 3 2 3
4 1 4 3 1 4
3 1 4 1 2 3
1 4 3 1
1
[--6-----------|--7-----------|--------------|--------0---0|------6/7------|
----7-4-------|----7---0-----|----0---0-----|------0---9---|---0-----8h10-|
--------3-----|------8-------|--------------|--------------|--------------|
----------4---|----------4---|------8---7---|----6---------|-8------------|
------------6-|------------6-|------------9-|--7-----------|--------------|
--------------|--------------|--7-----------|--------------|--------------|]
!
2 3 3 1 2 4
3 2 4
1 3
4
2
1 3
2 1
4
3
1
2 4
[--------0-----|--------------|--------------|--0------------12-|
--9---7-------|--------------|--------------|-------11-14-11---|
----8-----5h8-|--6---0-------|--------0---6-|----12------------|
--------------|----8---------|----------8---|------------------|
--------------|--------7-----|------7-------|------------------|
--------------|----------9p7-|--6h9---------|------------------|]
!
2
!
!
!
3 2 1
1 4
2 4
1 3 1
1 4 2
3 1
2
1
3
1
(ткюф)
[--9-15h12----------|-----12-11h12-10h11-|--8h9------------|
----------14-11-14-|--12----------------|------11h12-9h10-|
-------------------|--------------------|-----------------|
-------------------|--------------------|-----------------|
-------------------|--------------------|-----------------|
-------------------|--------------------|-----------------|]
1 3 1 3 1 3
3 4
3 4
2 3
1 2 3 4 1 2
Sostenuto
[--------------------|-------------------|-----------2----3--
--|
--------------------|--------0----------|--5-----------------|
--12/13-10h11-------|-------------------|--------------------|
--------------13/14-|-----11------------|--2--------4----5---|
--------------------|--13------11h12-9--|--------------------|
--------------------|-------------------|--0--------2----3---|]
!
!
!
!
4 4
1 2
4 4
3
1
1 2
1
4
1
1
3
1
1
3
1
(*DTR.*)
(*DTR.*)
[-------------------|--2--------5----3----|----2-------------
--|
----1--------------|---------------------|--5---5------------|
--4---4------------|---------------------|-------------------|
-------------------|--4--------7----5----|--2h4p2------------|
--2h3p2------------|---------------------|-------------------|
-------------------|--2--------5----3----|--0----------------|]
!
!
!
2 1 2
4 3 4
1
3
1
1
3
1
1
3
1
4 1 4
1 3 1
[--12--------14----15----|--17----5----8---7--10--8---5--1--|
------------------------|----------------------------------|
--9---------11----12----|--14------------------------------|
------------------------|--------7----10--9--12--10--7--3--|
------------------------|----------------------------------|
------------------------|--------5----8---7--10--8---5--1--|]
!
!
!
!
!
!
!
!
!
4
1
4
1
4
1
4
1
1
3
1
1
3
1
1
3
1
1
3
1
(*DTR.*)
(*DTR.*)
[--0-----------8------|----2---------------|
-----------12----12--|--5---5-------------|
---------------------|--------------------|
--2--------9h-10p9---|--2h4p2-------------|
---------------------|--------------------|
--0------------------|--------------------|]
1
4 1 4
4 1 4
2 3 2
1 3 1
(*DTR.*)
(*DTR.*)
(*DTR.*)
[-----8-------------------|-------------------||
--12----12--------1------|-------------------||
----------------4---4----|-------------------||
--9h-10p9----------------|----4--------------||
----------------2h3p2----|--7---7------------||
-------------------------|--0h2p0------------||]
4 1 4
4 1 4
4 2 4
2 3 2
2 3 2
1
1
3
1
1
3
1
1
3
1
Документ
Категория
Ноты, аккорды
Просмотров
3
Размер файла
20 Кб
Теги
каприз, паганини, никколо
1/--страниц
Пожаловаться на содержимое документа