close

Вход

Забыли?

вход по аккаунту

?

Парк Горького - Ocean

код для вставкиСкачать
Ocean
Intro:[e-8---7----------------0------------8-7-------------0-----------------
H---5---5-----0-1--3-----3--------0-----5-----0-1-3---3-------0-------
G-----------2--------2---------1------------2-------------------1-----
D-7-------3--------0----------------7-----3-------0---------4---------
A----------------------------2----------------------------2-----------
E--------------------------0----------------------------0-------------]
Verse:< Am E>
[e---------------------------------------------------------------------
H---------1---------------3---1-------1-------------------------0-----
G-----2-------2-------2---------2---2---2-----3---------------1-------
D---2---2---2-------2---2---2-----3---------3---3-----3---------------
A-0-------------0-------------------------1---------3---3---2---------
E-----------------3-------------------------------1-------0-----------]
> ^^^^^^^^^^^^^^^^^^^^^^^^^^^^^^^^^^^^^^^^^^^^^^^^^^^^^^^ A
[e-----------------------------------------------------------------0----
H-----------------------------------------------------------------2----
G-//---//---//THE SAME-//---//----//---//---//--//----//--------2------
D-------------------------------------------------------------2--------
A-----------------------------------------------------------0----------
E---------------------------------------------------------0------------]
Chorus:<Dm G Em F C D F G>
Take me back to see the ocean
Bearing sound'o'waves devotion
Wash away the words corosion
That we left behide
Clean me up with wind and water
I'm your sun and you're my daughter
I won't let this moment slaughtered
In my buring mind
Chorus:<Dm G Em F C D F G>
Chorus:And when I'm lost inside the walls
I'd live this moment moment more and more
So blind I can't help it
Lost inside the walls
I need this moment moment more and more
So blind I can't help it
Searching ways for understanding
I would lose my boat standed
Now I know I was defending
Castel on a sand
Take me back to see the ocean
City's draining my emotions
Let me have a healing potion
Sipping off your hands
Документ
Категория
Ноты, аккорды
Просмотров
24
Размер файла
2 Кб
Теги
горького, парк, ocean
1/--страниц
Пожаловаться на содержимое документа