close

Вход

Забыли?

вход по аккаунту

?

Песни из фильмов, мультфильмов - Taxi 2

код для вставкиСкачать
Taxi 2
[e---------------------------1-0-----3------5-7-8-8---5-3----
b---------1-0-------------3-----3------3-----------------3--
g-------2-----2---------2-----------------------------------
D-----2---------------0-------------------------------------
A---0---------------0---------------------------------------
E-0---------------0-----------------------------------------
> Am Dm Am Dm
e----0---1-----3------5-7-8-8---5-3---------0---1-----3-----
b-5--1---3--------3-------------------3-5---1---3-------3---
g----2---2----------------------------------2---2-----------
D----2---0----------------------------------2---0-----------
A----0---0----------------------------------0---0-----------
E----0---0----------------------------------0---0-----------
> Am Dm Am Dm Am Dm
e-5-7-8-8---5-3--------0---1---0---1---0---1----------------
b----------------3-5---1---3---1---3---1---3----------------
g----------------------2---2---2---2---2---2----------------
D----------------------2---0---2---0---2---0----------------
A----------------------0---0---0---0---0---0----------------
E----------------------0---0---0---0---0---0----------------]
Документ
Категория
Ноты, аккорды
Просмотров
9
Размер файла
1 Кб
Теги
песни, фильмов, taxi, мультфильмов
1/--страниц
Пожаловаться на содержимое документа