close

Вход

Забыли?

вход по аккаунту

?

Песни из фильмов, мультфильмов - Где то на белом свете

код для вставкиСкачать
Где то на белом свете
>Am Dm E Dm
(1)Где-то на белом свете, там где всегда мороз
>Am Dm G C
Трутся спиной медведи о земную ось
>Dm G C Am
Мимо плывут столетья, спят подо льдом моря
>Am Dm E Am
Трутся об ось медведи, вертится земля
>Am A7 Dm G C Am
Припев:Ля-ля-ля-ля-ля-ля-ля, вертится быстрей земля / 2 раза
(2)Крутят они стараясь, вертят земную ось
Что бы влюбленным раньше встретиться пришлось
Что бы однажды утром, раньше на год иль два
Кто-то сказал кому-то главные слова
!Припев
(3)В след за весенним ливнем раньше придет рассвет
И для двоих счастливых много много лет
Будут сверкать зарницы, будут ручьи звенеть,
Будет туман кубится, белый как медведь
-
Соло:1|--------5---------------5-------------5---------3-----3-5--|
2|--3-3-6----3-5-5--2-2-5----2-3--3-3-6----3-5-5----6-5------|
3|-----------------------------------------------------------|
4|-----------------------------------------------------------|
5|-----------------------------------------------------------|
6|-----------------------------------------------------------|
1|-----7-10--7----------5-8--5----------5---------------5----|
2|-8-8---------8-8--6-6--------6--3-3-6----3-5-5--2-2-5--2-3-|
3|-----------------------------------------------------------|
4|-----------------------------------------------------------|
5|-----------------------------------------------------------|
6|-----------------------------------------------------------|
1|--5---5--11-10-8----------------6-5---------|
2|------------------11-8---5---5------8--6-3--|
3|--------------------------------------------|
4|--------------------------------------------|
5|--------------------------------------------|
6|--------------------------------------------|
(1)Где-то на белом свете, там где всегда мороз
Трутся спиной медведи о земную ось
Мимо плывут столетья, спят подо льдом моря
Трутся об ось медведи, вертится земля
Припев:Ля-ля-ля-ля-ля-ля-ля, вертится быстрей земля / 2 раза
(2)Крутят они стараясь, вертят земную ось
Что бы влюбленным раньше встретиться пришлось
Что бы однажды утром, раньше на год иль два
Кто-то сказал кому-то главные слова
!Припев
(3)В след за весенним ливнем раньше придет рассвет
И для двоих счастливых много много лет
Будут сверкать зарницы, будут ручьи звенеть,
Будет туман кубится, белый как медведь
Документ
Категория
Ноты, аккорды
Просмотров
7
Размер файла
3 Кб
Теги
белое, свет, песни, фильмов, мультфильмов, где
1/--страниц
Пожаловаться на содержимое документа