close

Вход

Забыли?

вход по аккаунту

?

Песни из фильмов, мультфильмов - Джентельмены удачи

код для вставкиСкачать
“ема из
‘ ƒжентельмены удачи
[E||--------------------------------------------------------------------|
B||--6--8--6--5--6-----6--8--6--5--6--------10-10-10--9-9--8-10--7Ч6-6-|
G||----------------6------------------6--6-----------------------------|
D||--------------------------------------------------------------------|
A||--------------------------------------------------------------------|
E||--------------------------------------------------------------------|
E||-----10-10--9--10--9--8--7-7-6--7--6--6--5-5--6--5--6---6-----------|
B||--6----------------------------------------------------7---5Ч-4-4---|
G||--------------------------------------------------------------------|
D||--------------------------------------------------------------------|
A||--------------------------------------------------------------------|
E||--------------------------------------------------------------------|]
„асть 1:
1|-------------------------------------------------------2|--0----1--0-----0----------0----1--0-----0-----------0-3|-------------3-------0----------------3-------0--------1|--3--2--0----------------------------------------------2|-----------0----3--1--0--1----0---------0--------------3|---------------------------------2---------------------1|---------------------------------------------------------2|--3--1--0--1------------------3--1--0--1-----------------3|----------------2--------2------------------2--------2---1|-------------------------------------------------------2|--3--1--0-------1--0----------1--0-----------------0---3|-----------2----------2--0------------------------------
„асть 2:
1|---------------------------------------------------------2|--1--0-----0-------------0----1--0-----0-------------0---3|--------3-------0-------------------3-------0-----------1|--3--2--0-----------------------------------------0----2|-----------0----3--1--0--1----0------------------------3|---------------------------------2----------------------
1|--5--3--2--3----0-------------5--3--2--3-------0-----0---2|---------------------------------------------------------3|---------------------------------------------------------1|--5--3--5--3----3--2----------2--0---------------------2|----------------------4--0-----------------------------3|-------------------------------------------------------!
>
„асть 1:
Em
1|-----------------------------------------------------------
---2|--0----1--0-----0-------------0----1--0-----0------------0---3|-------------3-------0--------0----------3-------0-------0---4|------------------------2-----2---------------------2----2---5|-------------------------------------------------------------6|---------------------------0---------------------------0----->
>
!
>
Am
1|--3--2--0----------------------------------------------2|--0--------0----3--1--0--1----0------------------------3|--0------------------------------2-----2-----2----2----4|---------------------------------2-----2-----2----2----5|------------------------------------------0------------6|------------------------------------0-----------0------1|---------------------------------------------------------2|--3--1--0--1------------------3--1--0--1-----------------3|----------------2--------2------------------2--------2---4|-------------------2-----2---------------------2-----2---5|--0-------------------0---------------------------0------6|---------------------------------------------------------H7
1|-------------------------------------------------------2|--3--1--0-------1--0----------1--0-----0-----0-----0---3|--0--------2----------2--0-------2-----2-----2-----2---4|------------------------------------------1------------5|------------------------------------0-----------0------6|-------------------------------------------------------„асть 2:
Em
1|---------------------------------------------------------2|--1--0-----0-------------0----1--0-----0-------------0---3|--------3-------0--------0----------3-------0--------0---4|-------------------2-----2---------------------2-----2---5|----------------------------------------------------------
>
>
>
6|----------------------0---------------------------0------Am
1|--3--2--0----------------------------------------------2|--0--------0----3--1--0--1----0------------------------3|--0------------------------------2-----2-----2----2----4|---------------------------------2-----2-----2----2----5|------------------------------------------0------------6|------------------------------------0-----------0------D
G
C
1|--5--3--2--3----2--------2----5--3--2--3----2--0-----0---2|--5-------------------3------------------------1-----1---3|--5----------------2---------------------------------0---4|----------------0-------------0--------------------------5|--0-----------------------------------------------3------6|---------------------------------------------------------Am
Em
1|--5--3--5--3----3--2----------2--0---------------------2|--5-------------------4--0-------0---------------------3|--5------------------------------0---------------------4|-------------------------------------------------------5|--0----------------------------------------------------6|------------------------------0-------------------------
Документ
Категория
Ноты, аккорды
Просмотров
8
Размер файла
6 Кб
Теги
песни, фильмов, удачи, джентельмены, мультфильмов
1/--страниц
Пожаловаться на содержимое документа