close

Вход

Забыли?

вход по аккаунту

?

Песни из фильмов, мультфильмов - Постой паровоз...

код для вставкиСкачать
...Постой паровоз, не стучите колеса...
>Am Dm E Am
Летит паровоз по долинам, по взгорьям
> C E
Летит он неведомо куда.
> Am A7 Dm
Я к маменьке pодной с последним пpиветом
> Am E Am
Спешу показаться на глаза.
(2)не жди меня, мама, хоpошего сына.
Твой сын не такой как был вчеpа.
Меня засосала опасная тpясина
И жизнь моя - вечная игpа.
А если посадят меня за решетку,
В тюрьме я решеточку порву.
Пускай луна светит своим продажным светом,
А я все равно убегу.
А если заметит тюремная стража,
Тогда я мальчишечка пропал.
Тревога и выстрел, и вниз головою,
Под стену тюремную упал.
Я буду лежать на тюремной кровати,
И буду лежать, умирать.
И вы не придете любимая мамаша,
Меня перед смертью целовать.
(3)Постой, паpовоз, не стучите, колеса.
Есть вpемя взглянуть судьбе в глаза.
Пока еще не поздно нам сделать остановку,
Кондуктоp, нажми на тоpмоза.
-
Соло:1) -0-0-5-3-1-------0---0-------
2) -----------3-1-0---3---------
3) -----------------------2-----
1) -3-3--------8-7-5-4--0-8-7-8-7-5-
2) -----1-5-5-----------------------
3) ---------------------------------
1) -0-5-3-5-3-1--0-0-3-1-0---------
2) ------------------------3-0-1---
3) ------------------------------2-
-
!Играется двумя гитарами. Cоло:
[е-0-0-5-3-1-------0---0-------
H-----------3-1-0---3---------
G-----------------------2-----
e-3-3--------8-7-5-4--0-8-7-8-7-5--0-5-3-5-3-1--0-0-3-1-0---------
H-----1-5-5-----------------------------------------------3-0-1---
G---------------------------------------------------------------2-]
!А вторая аккордами стучит (2/4).
-
> Am Dm E7 Am C(III) E(IV)
Вступление:[e-0-0-5-3-1-----------0-----3-3-0---3-3-8-7-5-4--
h-----------3-1-0-1-3---1------------------------
g------------------------------------------------]
> Am A Dm Am
[e-0-8-7-8-7-5--5-5-5-6-5-3-1--1-1-3-1-0----------
h---------------------------------------3-1-0----
g---------------------------------------------2--]
> Am Dm E Am
(1)Летит паровоз по долинам, по взгорьям,
> C E7
Летит он неведомо куда.
> Am A7 Dm
Мальчонка назвал себя жуликом и вором,
> Am E7 Am
И жизнь его -- вечная игра.
(2)Постой, паровоз, не стучите, колеса,
Кондуктор, нажми на тромоза.
Я к маменьке родной с последним приветом
Хочу показаться на глаза.
(3)Не жди меня, мама, хорошего сына,
Твой сын не такой, как был вчера.
Меня засосала опасная трясина,
И жизнь моя -- вечная игра.
(4)А если посадят меня за решетку,
В тюрьме я решетку пробью,
И пусть луна светит своим продажным светом,
А я все равно убегу.
(5)А если заметит тюремная стража,
Тогда я, мальчишечка, пропал.
Тревога и выстрел, и вниз головою
Под стену тюремную упал.
(6)Я буду лежать на тюремной кровати,
Я буду лежать и умирать.
И вы не придете, любезная мамаша,
Меня перед смертю целовать.
(7)Летит паровоз по долинам, по взгорям,
Летит он неведомо куда.
Я к маменьке родной, больной и голодной,
Спешу показаться на глаза.
(8)Постой, паровоз, не стучите, колеса,
Есть время заглянуть судьбе в глаза.
Еще не поздно сделать остановку.
Кондуктор, нажми на тормоза.
-
Соло:|---------------------|--------0---------------0--------|
|----1---1---0----0---|------1------1--------0--------0-|
|----2---2---2----1---|----2--------2------2----------1-|
|---------------------|---------------------------------|
|-0-------------------|-0-------------------------------|
|------3---1---0------|----------3------1----------0----|
|-----------------0---|-0----5--3--1--------------------|
|---1---1---1---------|---1-----------0---3---1---------|
|---2---2---2---------|---2-----------2-----------------|
|---------------------|------------0--------------------|
|-0-------0-----------|-0-------------------------------|
|-----0-------0-------|---------------------------------|
|------0---0---------0|-3--3----------0-3-8-7-5---4-----|
|-0------3---------1--|------------1--------------------|
|---1---------2-1-2---|------0--2-----------7-5---------|
|---2-----------------|---------------------------------|
|----------0----------|-3-------------------------------|
|-0-------------------|---------------------------0-----|
|--------------0--8---7-8-7--5----0-|-5---3-5-3--1---1--|
|-3---0---0---------5---------------|---2----------0----|
|-4-2---3---4-------5---------------|---0----------2----|
|-----------------------------------|-----2---0---------|
|-----------------0-------0---------|-0-----------------|
|---2---3---4------------------0----|-------------------|
|-0----3-1-0------------0----------------0----|
|---1---------3-0-1-----1--------0------------|
|---2----------------2-----------1------------|
|-2-------------------------------------------|
|--------------------0------------------------|
|----------0--------------3-1-0-----2----4----|
|-0----3-1-0----------------0-----5-~---------|
|---1---------3-1-0---------3-----5-~---------|
|---2------------------2----1-----5-~---------|
|-2-------------------------------------------|
|----------------------0----------0-----------|
|----------0----------------0-----------------|
(1)Летит паровоз по долинам, по взгорьям,
Летит он неведомо куда.
Мальчонка назвал себя жуликом и вором,
И жизнь его - вечная игра.
(2)Постой, паровоз, не стучите, колеса,
Кондуктор, нажми на тромоза.
Я к маменьке родной с последним приветом
Хочу показаться на глаза.
(3)Не жди меня, мама, хорошего сына,
Твой сын не такой, как был вчера.
Меня засосала опасная трясина,
И жизнь моя - вечная игра.
(4)А если посадят меня за решетку,
В тюрьме я решетку пробью,
И пусть луна светит своим продажным светом,
А я все равно убегу.
(5)А если заметит тюремная стража,
Тогда я, мальчишечка, пропал.
Тревога и выстрел, и вниз головою
Под стену тюремную упал.
(6)Я буду лежать на тюремной кровати,
Я буду лежать и умирать.
И вы не придете, любезная мамаша,
Меня перед смертю целовать.
(7)Летит паровоз по долинам, по взгорям,
Летит он неведомо куда.
Я к маменьке родной, больной и голодной,
Спешу показаться на глаза.
(8)Постой, паровоз, не стучите, колеса,
Есть время заглянуть судьбе в глаза.
Еще не поздно сделать остановку.
Кондуктор, нажми на тормоза.
Документ
Категория
Ноты, аккорды
Просмотров
7
Размер файла
7 Кб
Теги
постой, песни, фильмов, мультфильмов, паровоз
1/--страниц
Пожаловаться на содержимое документа