close

Вход

Забыли?

вход по аккаунту

?

Пилот - Пешком По Шпалам

код для вставкиСкачать
Пешком По Шпалам
Вступление и соло:
1|----------3-1-0-------------0-------0--
2|----0-1---------3-----0-1-----3-1-3----
3|--2-----2-----------2-----2------------
4|---------------------------------------
1|----------3-1-0-------------0----------
2|----0-1---------3-----0-1-----3-1-0----
3|--2-----2-----------2-----2---------2--
4|---------------------------------------
> Am G
(1)По дорогам жаждущим,
> F E Am
По дорогам жаждущим тепла
> G
Я шагаю налегке,
> F E Dm
Посланный за смертью с рюкзаком.
И стук колес играет старый блюз
> E Am
По шпалам мимо нот.
> Am G
(2)За вином и музыкой
> F E Am
Проходит быстро жизнь моя
> G
И летают бабочки
> F E Dm
Над стаканом водки светофор
> E
Мигает глазом своим обкуренным зрачком,
Меняя цвет
> F Am
Припев:Пешком по шпалам на юга } 3 раза
> Dm
Где солнце, море, воздух,
Пиво, водка, бабы и луна.
(3)По карману шарится
Заветный стольник и билет,
По земле катается
Пустая кружка и сухарь
И скрип нажатых тормозов
Стирает ржавые дома
Припев:Пешком по шпалам на юга } 3 раза
Где солнце, море, воздух,
Пиво, водка, бабы и луна.
Документ
Категория
Ноты, аккорды
Просмотров
7
Размер файла
1 Кб
Теги
пешком, пилот, шпала
1/--страниц
Пожаловаться на содержимое документа