close

Вход

Забыли?

вход по аккаунту

?

Пилот - Про Кота

код для вставкиСкачать
Про Кота
> D G C
За пятью холмами под лиловым небом
> D G C
Стоит дом.
У окна, на кресле, под зеленым пледом
Спит он.
Убежали люди, бросив вещи,
Такая вещь - война.
Своя шкура дороже, понятное дело,
Забыли кота.
> D
Было время вспомнить
> A#* D
И взять его с собой,
> D
"Но до зверей ли тут?" -
> A#* G C *D*
Скажет вам, наверно, любой.
Там, где в гриве лошадь
Золотистый вечер несла,
Ходит кот унылый
Во сне. У всех просит молока.
Встретят его скоро
У ворот небесных теплом,
За пятью холмами, под лиловым небом
Стоит дом.
Примечание:<A#*> - [033000]
<*D*> - [120000]
-
> D G C
1|------------2------------------------0-----|
2|-------3---------3---------0-----------1---|
3|-----2---2-----2---2-----0---0-----0-------|
4|--0----------------------------------------|
5|----------------------2---------3----------|
6|-------------------------------------------|
> D G C
За пятью холмами под лиловым небом
> D G C
Стоит дом.
У окна, на кресле, под зеленым пледом
Спит он.
Убежали люди, бросив вещи,
Такая вещь - война.
Своя шкура дороже, понятное дело,
Забыли кота.
> D A#* D } 2 раза
1|------------2-------------------0-------------------2---------|
2|-------3---------3---------3---------3---------3---------3----|
3|-----2---2-----2---2-----3---3-----3---3-----2---2-----2---2--|
4|--0-------------------0-------------------0-------------------|
5|--------------------------------------------------------------|
6|--------------------------------------------------------------|
> D
Было время вспомнить
> A#* D
И взять его с собой,
> A#* G C C *D*
1|------------2-------------------0---------0-----1--|
2|-------3---------3---------0---------1----1-----2--|
3|-----3---3-----3---3-----0---0-----0---0--0--------|
4|--0---------------------------------------2--------|
5|----------------------2-------------------3--------|
6|------------------------------------------0--------|
> D
"Но до зверей ли тут?" -
> A#* G C *D*
Скажет вам, наверно, любой.
Там, где в гриве лошадь золотистый вечер
несла,
Ходит кот унылый во сне. У всех просит
молока.
Встретят его скоро у ворот небесных
теплом,
За пятью холмами, под лиловым небом
Стоит дом.
Примечание:<A#*> - [033000]
<*D*> - [120000]
!По "<C>" в третьей табе плавно провести рукой
Документ
Категория
Ноты, аккорды
Просмотров
37
Размер файла
3 Кб
Теги
кота, пилот, про
1/--страниц
Пожаловаться на содержимое документа