close

Вход

Забыли?

вход по аккаунту

?

Пилот - Цветные стекла

код для вставкиСкачать
Цветные стекла
> Am
Приходила зима, закрывались окна,
> Dm
Уходили со двора пьяные дети,
> Am
Кидающие камни по стеклам.
И я опять закладывал уши ватой
> Dm
До весны, чтоб не слышать как шел снег
> Am
По прокуренным парадным.
> Dm
Не уходи, побудь со мною рядом!
> Dm7
Я уже совсем не тот, как раньше.
> F G
Я уже не умею красить красками стекла.
> F G
Я уже не умею веселиться зимою.
Надевала шпана сапоги, улетали птицы на юг
В жаркие страны.
Я сбивал их рогаткой с окошка.
Я ходил полупьяный и заглядывал в лица,
Пока кто-нибудь не посылал меня на х...,
Как будто я там еще не был.
Не уходи, побудь со мною рядом!
Я уже совсем не тот, как раньше.
Я уже не умею красить красками стекла.
Я уже не умею веселиться зимою.
И зарывались в песок детские сказки,
Уходили читать газеты в старом сортире
И кидать кабанам ириски.
Убегали все кошки искать пожрать,
И толстые тетки жались к подъездам,
Обоссаным их же мужьями.
Не уходи, побудь со мною рядом!
Я уже совсем не тот, как раньше.
Я уже не умею красить красками стекла.
Я уже не умею веселиться зимою.
-
!Вступление (перед каждым куплетом):
Вариант 1:Вступление играется во время партии ударных
<Е Ам Е Ам F F> (<G>(барэ)) <Ам>
1--0-х-0-0----0-х-0-0----1-x-1-x-3----3-х-3-0
2--0-х-0-1----0-х-0-1----1-x-1-x-3----3-х-3-1
3--1-х-0-2----1-х-0-2----2-x-2-x-4----4-х-4-2
4--2-х-0-2----2-х-0-2----3-x-3-x-5----5-х-5-2
5--2-х-0-0----2-х-0-0----3-x-3-x-5----5-х-5-0
6--0-х-0-0----0-х-0-0----1-x-1-x-3----3-х-3-0
! ! )
! (гл) )
!(гл)-глушение всех струн.
Вариант 2:В этом моменте в место )
глушения можно играть )
аккорд "<Е>" )
!Дальше начинается ритм ,с небольшим солячком:
1------------------------------0-------------------------------------------------
2-1-0--1---0-1-0-1------------1-1--------1-0--1---0-1-0-1------------------------
3-------------------2--------2---2--------------------------2--------------------
4---------------------------2-----2----------------------------------------------
5--------------------------0-------0----------------------------------5-3-2---0------
6-------------------------0-------------------------------------------------3-
> Am Dm Am
Приходила зима, закрывались окна,уходили со двора пьяные дети,Кидающие камни по стеклам.
1---------------------------------------------------------1--1--------------------------
2-1---0-1-0-3---1-0-1-0-1------1---0-1-0-3---1-0-1-0-1----3----3------------------------
3-------------------------2-------------------------------2------2----------------------
4---------------------------------------------------------0-----------------------------
5---------------------------------------------------------0-----------------------------
6---------------------------------------------------------0-----------------------------
!Дальше все повторяется, по кассете очень легко попасть в тему...
> Am
Приходила зима, закрывались окна,
> Dm
Уходили со двора пьяные дети,
> Am
Кидающие камни по стеклам.
И я опять закладывал уши ватой
> Dm
До весны, чтоб не слышать как шел снег
> Am
По прокуренным парадным.
Припев 1:< Dm>
Не уходи, побудь со мною рядом!
> Dm7
Я уже совсем не тот, как раньше.
> F G
Я уже не умею красить красками стекла.
> F G
Я уже не умею веселиться зимою.
Надевала шпана сапоги, улетали птицы на юг
В жаркие страны.
Я сбивал их рогаткой с окошка.
Я ходил полупьяный и заглядывал в лица,
Пока кто-нибудь не посылал меня на ...,
Как будто я там еще не был.
Припев 2:Не уходи, побудь со мною рядом!
Я уже совсем не тот, как раньше.
Я уже не умею красить красками стекла.
Я уже не умею веселиться зимою.
Проигрыш:А вот здесь не очень понятно,можно сыграть <Ам>,<Ем>,<F>,<G> } 4 раза
а можно <Ам>,<Ем>,<Dm>,<F> } 4 раза
и то и то вроде похоже.
На ваше усмотрение.
!Во время проигрыша идет соляк.
!После третьего припева Черт этот соляк поет голосом вместе с гитарой.
4--5--3-2-0-2--0-5-5-3-2--0-5-5-3-2-0-2-0---|
5-----------------------------------------3-| } 4 раза
6-------------------------------------------|
И зарывались в песок детские сказки,
Уходили читать газеты в старом сортире
И кидать кабанам ириски.
Убегали все кошки искать пожрать,
И толстые тетки жались к подъездам,
Обоссаным их-же мужьями.
Припев 3:Не уходи, побудь со мною рядом!
Я уже совсем не тот, как раньше.
Я уже не умею красить красками стекла.
Я уже не умею веселиться зимою.
-
!Соло, после 2 куплета идёт припев и после него соло
!(также это соло встречается в конце песни):
G||-12--10--9---12--10--9---12--10--9---7--9--7--5
!Вроде похоже...
Документ
Категория
Ноты, аккорды
Просмотров
19
Размер файла
5 Кб
Теги
стекло, пилот, цветные
1/--страниц
Пожаловаться на содержимое документа