close

Вход

Забыли?

вход по аккаунту

?

Пилот - Шнурок

код для вставкиСкачать
Шнурок
> Em H7 Em H7
Все незаконно хранимые секреты убегают,
> Em H7 Em H7
Оставляя мои двери, утекая через тысячи
> C
Замков. <H7>
Утро, штрих кодом рубцов
> C H7
На левой руке, подскажет мне,
> Em H7 Em H7
Что наши сорванные быстро растрепались на ветру.
> Em H7 Em H7
По проводам, резонируя, уноситься в твою квартиру
> C
Моё слово.
> H7
Курим с тобой,
> C H7
А на руках замыкаются кольца рукой!
> G Am F H7
Два слова, строка, да шнурок с потолка! <Em>|<C>|<Am>|<H7>|
Проигрыш:<Em>|<H7>|<Em>|<Am>|<C>|<H7>
Мне зуб на зуб не попадает,
Я от бешенства белею каждый раз!
И снова глухо на трамвайной остановке!
И пальцы ловки!
И всё шире улыбки в местной ментовке!
А было б так просто докричаться до крови,
Отхаркать и раздать своё сердце по куску
На пироги!
Гори серая плесень!
Дай встать моим!
Твой мир им так тесен!
Два слова, строка, да шнурок с потолка!
И будут дети в твою спину кидать свои снежки,
И весь город, улыбаясь, будет слушать твои звонки.
Скоро ты станешь и сам
Перебегать кривыми по чужим адресам!
Я, как и ты, думал что за нами прилетят,
Ошейник снимут, за ухом почешут и всё простят!
Но я сплю у миски!
И ты всё съел! В подарок ириска!
Два слова, строка, да шнурок с потолка!
Верному псу шнурок с потолка!
-
Соло:[E|--------------------------------------------------------------10-8-7-5-4-5-7---
B|-5-8-7-8-10-7--5-8-7-8-10-8-7-5--4-5-7--5-8-7-8-10-7--5-8-7-8------------------]
-
> Em H7 Em H7
Все незаконно хранимые секреты убегают,
> Em H7 Em H7
Оставляя мои двери, утекая через тысячи
> C
Замков <H7>
Утро, штрих кодом рубцов
> C H7
На левой руке, подскажет мне,
> Em H7 Em H7
Что наши сорванные быстро растрепались на ветру.
> Em H7 Em H7
По проводам, резонируя, уноситься в твою квартиру
> C
Мое слово.
> H7
Курим с тобой,
> C H7
А на руках замыкаются кольца рукой!
> G Am F H7
Два слова, строка, да шнурок с потолка! <Em>|<C>|<Am>|<H7>|
Проигрыш:<Em H7> | <Em Am> | <C C> | <H7 H7>
Мне зуб на зуб не попадает,
Я от бешенства белею каждый раз!
И снова глухо на трамвайной остановке!
И пальцы ловки!
И все шире улыбки в местной ментовке!
А было б так просто докричаться до крови,
Отхаркать и раздать свое сердце по куску
На пироги!
Гори серая плесень!
Дай встать моим!
Твой мир им так тесен!
Два слова, строка, да шнурок с потолка!
И будут дети в твою спину кидать свои снежки,
И весь город, улыбаясь, будет слушать твои звонки.
Скоро ты станешь и сам
Перебегать кривыми по чужим адресам!
Я, как и ты, думал, что за нами прилетят,
Ошейник снимут, за ухом почешут и все простят!
Но я сплю у миски!
И ты все съел! В подарок ириска!
Два слова, строка, да шнурок с потолка!
Верному псу шнурок с потолка!
!Соло (на октаву ниже):
|---3-2-3-5-2----3-2-3-5-3-2--0----0-2-|
|-0------------0-----------------4-----|
|--------------------------------------|
|--------------------------------------|
|--------------------------------------|
|--------------------------------------|
|---3-2-3-5-2----3-2-3-10-8-7--3--2-3-5-|
|-0------------0------------------------|
|---------------------------------------|
|---------------------------------------|
|---------------------------------------|
|---------------------------------------|
!Бой:
!^ - удар по струнам снизу-вверх
!v - удар по струнам сверху-вниз
!x - заглушить звук (положить руку на струны)
!* - отпустить струны (аккорд [000000])
!Первая часть куплета:
!vv x ^x ^vv x ^x ^vv x ^x ^vv x ^x ^
>Em H7 Em H7 Em H7 Em H7 (Em)
!Вторая часть куплета:
!vx^x^v^ vx^x^v^ vx^x^v^ vx^x^v^
>C * H7 * C * H7 *
!Вторая часть куплета (перед припевом):
!vx^x^v^ vx^x^v^ vx^x^v^ v v v
>C * H7 * C * H7
!Припев:
!vv vv vv vv ^v^x ^^x ^v^x ^x^v^
>G Am F H7 Em C Am H7 *
!vv vv vv vv ^v^x ^^x ^v^v^x ^v^
>G Am F H7 Em C Am H7 *
!P.S.: Вроде как подбор очень даже достойный…
!мне понравился… вроде даже чем-то на истину похож…
!может просто аккордами…По крайней мере соло звучит прикольно…
-
!В общем соляк в песни организован скрипкой)
!В принципе конечн можно сыграть его и на гитаре)
[E||--------------------|--15--14--15--17--14~---------|
B||----------------12--|--------------------------12--|
G||--------------------|------------------------------|
D||--------------------|------------------------------|
A||--------------------|------------------------------|
E||--------------------|------------------------------|
--15--14--15--17~---15--14----|--12~-------------12--14--|--------------------|
------------------------------|--------------16----------|----------------12--|
------------------------------|--------------------------|--------------------|
------------------------------|--------------------------|--------------------|
------------------------------|--------------------------|--------------------|
------------------------------|--------------------------|--------------------|
--15--14--15--17--14~---------|--15--14--15--22~---20--19----|
--------------------------12--|------------------------------|
------------------------------|------------------------------|
------------------------------|------------------------------|
------------------------------|------------------------------|
------------------------------|------------------------------|
--15~---------14--15--17--||
--------------------------||
--------------------------||
--------------------------||
--------------------------||
--------------------------||]
Документ
Категория
Ноты, аккорды
Просмотров
15
Размер файла
6 Кб
Теги
шнуров, пилот
1/--страниц
Пожаловаться на содержимое документа