close

Вход

Забыли?

вход по аккаунту

?

Приключения Электроников - Все пройдет

код для вставкиСкачать
Все пройдет
Вступление:< Cm Fm Cm G>
[G||-5-------------------5-------------
D||----3-5--3-6--3-8-6-----3-5--5----- } 2 раза
A||-------------------------------5---]
> Cm Fm
Вновь о том, как день уходит с земли
> G Cm
Ты не громко спой мне.
> G# D#
Этот день быть может где-то в дали
> Fm G
Мы не однажды вспомним
> Cm Fm
Вспомни, как прозрачный месяц плывет
> G Cm
Над ночной прохладой
> G# D#
Лишь о том, что все пройдет
> G Cm
Вспоминать не надо.
> G# D#
Лишь о том, что все пройдет
> G Cm
Вспоминать не надо.
> Cm G Cm
Припев:Все пройдет и печаль и радость
> Cm G Cm
Все пройдет, так устроен свет
> Cm Fm G Cm
Все пройдет, только верить надо,
> Cm Fm G
Что любовь не проходит, нет.
Спой о том, как в даль идут корабли
Не сдаваясь буре.
Спой о том, что ради нашей любви
Весь этот мир придуман.
Спой о том, как биться не устает
Сердце с сердцем рядом
Лишь о том, что все пройдет
Вспоминать не надо.
Лишь о том, что все пройдет
Вспоминать не надо.
-
INTRO:[E|------------------------------------------------|
B|------------------------------------------------|
G|-5------------------------------5---------------| } 2 раза
D|------5-6----5--6----5--8--6---------5-6----8-5-|
A|------------------------------------------------|
E|------------------------------------------------|]
!(перебором)
>Am Dm E Am
(1)Вновь о том как день уходит с земли ты негромко спой мне
>C G E Am
Этот день быть может где-то вдали мы не однажды вспомним
!(по тоникам)
>Am Dm E Am
Вспомним как прозрачный месяц плывет над ночной прохладой
>Dm C E Am
Лишь о том, что все пройдет вспоминать не надо
!(квинтами)
>D5 C5 E5 A5
Лишь о том, что все пройдет вспоминать не надо
>A5 E5 G5 C5
Припев:Все пройдет - и печаль и радость
>A5 E5 G5 C5
Все пройдет - так устроен свет
>A5 E5 G5 C5
Все пройдет, только верить надо,
>D5 C5 E5 A5
Что любовь не проходит - нет
!Intro } 1 раз
(2)Спой о том как вдаль идут корабли не сдаваясь буре
Спой о том, что ради нашей любви весь этот мир придуман
Спой о том как биться не устает сердце с сердцем рядом
Лишь о том, что все пройдет вспоминать не надо } 2 раза
!Припев
Соло:[E|-----5-------------------------------------------------------|
B|-5/7---7-7-5/7-5---------3-5-3-1---1-------------------------|
G|-----------------2/4-2h4---------3---2b4-2b4-2---------2h4p2-|
D|-----------------------------------------------2h4-2h4-------|
A|-------------------------------------------------------------|
E|-------------------------------------------------------------|
E|-------------------------------------------------------|
B|-------------------------------------------------------|
G|-9-7h9-7h9p7-7-5h7-5h7p5-10-8-10-8---10b12-8--10-8-8---|
D|-----------------------------------10------10-------10-|
A|-------------------------------------------------------|
E|-------------------------------------------------------|
E|---------------------------|
B|---------------------------|
G|-10b12b10---7-9-11-9-7-9-7-|
D|---------10----------------|
A|---------------------------|
E|---------------------------|
E|-------------------------------------------------------------|
B|-------------------------------------------------------------|
G|-5-7-9-7-5-7-5----9--7-----7--9--11b12--9--7--9--7--7--11b12-|]
Документ
Категория
Ноты, аккорды
Просмотров
9
Размер файла
4 Кб
Теги
пройдёт, приключения, электроников, все
1/--страниц
Пожаловаться на содержимое документа