close

Вход

Забыли?

вход по аккаунту

?

Приключения Электроников - Песенка друзей

код для вставкиСкачать
Песенка друзей ("Если с другом вышел в путь")
Ла-ла-ла...... (Под аккорды <Dm Am E Am
Dm Am E Am E>)
!Андрюха Шабаев:
>Am
Если с другом вышел в путь
Если с другом вышел в путь
> E
Веселей дорога
Без друзей меня чуть чуть
Без друзей меня чуть чуть
> Am
А с друзьями много
> Dm
Припев:Что мне снег что мне зной
> Am
Что мне дождик проливной
> E Am
Когда мои друзья со мной
>A7 Dm
Что мне снег что мне зной
> Am
Что мне дождик проливной
> E Am E
Когда мои друзья со мной
!Дима "СИД" Спирин:
Там где трудно одному
Там где трудно одному
Справлюсь вместе с вами
Где чегой то не пойму
И чегой то не разберу //А-ля Сид
Разберем с друзьями !Припев
!Вот соло саксофона, только исполняется на гитаре!!!
!(Может покажется неудобным, потому что исполняется на 8-13 ладах)
RiFF 1:[E|--------8-10-8-------| |--------8-10-8----|
H|--10-12--------12-10-| |--10-12--------12-|
G|---------------------| |------------------|
D|---------------------|x2|------------------|
A|---------------------| |------------------|
E|---------------------| |------------------|
RiFF 2:E|--------7-8-7--------| |-------7-8-7------|
H|---9-10-------10-9---| |--9-10-------10---|
G|---------------------| |------------------|
D|---------------------|x2|------------------|
A|---------------------| |------------------|
E|---------------------| |------------------|]
!Дальше идёт импровизация
Импровизация 1:[E|-------------------------------------|
H|--12-10-9-10-10-8--------------------|
G|------------------10-9-7-9-7-9-------|
D|-------------------------------------|
A|-------------------------------------|
E|-------------------------------------|
Импровизация 2:E|-----12-10---------------|
H|--12-------13-12-10-9-10-|
G|-------------------------|
D|-------------------------|
A|-------------------------|
E|-------------------------|]
!Фуковский "ЭлектроФукс":
На медведя я друзья
На медведя я друзья
Выйду без испуга
Если с другом буду я
Если с другом буду я
А медведь без друга
!Припев
Ла-ла-ла...
!В басу идут арпеджио для <Am E Dm>
!Бас для Песенка друзей ("Если с другом вышел в путь")
> Am E Dm
G|----------| G|----1-4-1-| G|------2---|
D|------3---| D|--2-------| D|--0-3---3-|
A|--0-3---3-| A|----------| A|----------|
E|----------| E|----------| E|----------|
!P.S.: Как всегда, лучше фигарить эту песню на барешных аккордых,
!особенный упор на панк делая в той части песни, где поёт Сид.
Документ
Категория
Ноты, аккорды
Просмотров
7
Размер файла
3 Кб
Теги
песенка, друзей, приключения, электроников
1/--страниц
Пожаловаться на содержимое документа