close

Вход

Забыли?

вход по аккаунту

?

Прикольные песни - Animals - House of Rising Sun

код для вставкиСкачать
Animals - House of Rising Sun
! (петь нужно дебильным голосом на мотив "House of the rising sun")
! Проигрыш: ритмично и мелодично
> Am C D Am
1|------0-------0-----2-2-------0---|
2|----1--1----1--1----3--3----1--1--|
3|----2---2---2---2---2---2---2---2-|
4|--2-2-------0-----0-0-------2-----|
5|----------3-3-------------0-0-----|
6|----------------------------------|
> Am C E
1|------0-------0-------0-----|-----|
![2|----1--1----1--1----0--0----|-----|] повторить
![3|----2---2---2---2---1---1---|-----|] сначала:
![4|--2-2-------0-------2-----2-|-----|] <Am>; <C>; <D>; <Am>
![5|----------3-3-----2-2-------|-3h2-|] потом по
![6|----------------------------|-----|] аналогии:
<Am>; <E>; <Am>
!Verse 1; Riff 1:
> Am C D Am
В старом сосновом еврейском бору...
> Am C E
Там грустная песня звучала
О том как Абрам уходил на войну
> Am E Am
А Сара его провожала...
!Verse 2; Riff 2:
> Am C D Am
1|------0-------0---2-2-2-------0---|
2|--1-1--1--1-1--1--3-3--3--1-1--1--|
3|--2-2---2-2-2---2-2-2---2-2-2---2-|
4|--2-2-----0-0-----0-0-----2-2-----|
5|----------3-3-------------0-0-----|
6|----------------------------------|
> Am C E
1|------0-------0-------0-----|-----|
2|--1-1--1--1-1--1--0-0--0----|-----|
3|--2-2---2-2-2---2-1-1---1---|-----|
4|--2-2-----0-0-----2-2-----2-|-----|
5|----------3-3-----2-2-------|-3h2-|
6|----------------------------|-----|
Будь храбрым будь смелым Абрам мой Абрам
За русскую спину ховайся
А если вдруг вспомнишь ты Сару свою
> Am E Am
Домой без монет не вертайся
!Verse 3: аккорды те же, только играются "чесом"
Отшумела отгремела та лютая война
Абрам с той войны не вернулся... (лирическая пауза-все в трауре *8-)))
!Далее диким и быстрым боем:
> Am C D Am
Фаши-и-истская пуля настигла его-о-о-о
> Am E Am
Когда русский Ванька споткнулся!
Документ
Категория
Ноты, аккорды
Просмотров
25
Размер файла
2 Кб
Теги
sun, песни, house, animals, прикольные, rising
1/--страниц
Пожаловаться на содержимое документа