close

Вход

Забыли?

вход по аккаунту

?

Пятница - Москва Не Станет Лондоном

код для вставкиСкачать
Москва Не Станет Лондоном
Вступление:(акустика)
[D|------------------------------|
A|-0-5---5-5-5---5-8---8-8-8----|
E|------------------------------|]
Вступление:(distortion)
[D|-0-7-7-7-7---10---10---10---10-----9---5--0--|
A|-0-5-5-5-5---8----8----8----8------7---3--0--|
E|---------------------------------------------|
D|-0-7-7-7-7---10---10---10---10-----9---5--5--|
A|-0-5-5-5-5---8----8----8----8------7---3--3--|
E|---------------------------------------------|
D|-0-7-7-7-7---10---10---10---10-----9---5--0--|
A|-0-5-5-5-5---8----8----8----8------7---3--0--|
E|---------------------------------------------|
G|-0--9-9-9-9--7-7-7-7--5-5-5-5--|
D|-0--7-7-7-7--5-5-5-5--3-3-3-3--|
A|-------------------------------|
D|-0--7-7--9-9--10--10---0---7-7--9-9--10--10-|
A|-0--5-5--7-7--8---8----0---5-5--7-7--8---8--|
E|--------------------------------------------|
D|-0--7-7--9-9--10--10--10--10-----9-9--5-5--0-0-|
A|-0--5-5--7-7--8---8---8---8------7-7--3-3--0-0-|
E|-----------------------------------------------|
D|-0--7-7--9-9--10--10---0---7-7--9-9--10--10-|
A|-0--5-5--7-7--8---8----0---5-5--7-7--8---8--|
E|--------------------------------------------|
G|-0--9-9-9-9--7-7-7-7--5-5-5-5--|
D|-0--7-7-7-7--5-5-5-5--3-3-3-3--|
A|-------------------------------|]
Рифф куплета:"В Москве не понимают панк..."
[D|-7-7-7-7--10-10-10-10-----|
A|-5-5-5-5--8--8--8--8------|
E|--------------------------|
D|-7-7-7-7--10-10-10-10-----|
A|-5-5-5-5--8--8--8--8------|
E|--------------------------|
D|-7-7-7-7--10-10-10-10-----|
A|-5-5-5-5--8--8--8--8------|
E|--------------------------|
D|-7-7-7-7--10-10-10-10-----|
A|-5-5-5-5--8--8--8--8------|
E|--------------------------|]
"Преобладает серый цвет..."
[D|-9-9-9-9--12-12-12-12-----|
A|-7-7-7-7--10-10-10-10-----|
E|--------------------------|
D|-9-9-9-9--12-12-12-12-----|
A|-7-7-7-7--10-10-10-10-----|
E|--------------------------|
D|-9-9-9-9--12-12-12-12-----|
A|-7-7-7-7--10-10-10-10-----|
E|--------------------------|
D|-9-9-9-9--12-12-12-12-----|
A|-7-7-7-7--10-10-10-10-----|
E|--------------------------|
Припев:D|-0-7-7----10---10----9---5--0--|
A|-0-5-5----8----8-----7---3--0--|
E|-------------------------------|
D|-0-7-7----10---10----9---5--5--|
A|-0-5-5----8----8-----7---3--3--|
E|-------------------------------|
D|-0-7-7----10---10----9---5--0--|
A|-0-5-5----8----8-----7---3--0--|
E|-------------------------------|
G|-0--9-9--7-7--5-5--|
D|-0--7-7--5-5--3-3--|
A|-------------------|]
Проигрыш:"Жизнь в Москве..."
[D|-0--7-9-10--0--7-9-10-|
A|-0--5-7-8---0--5-7-8--|
E|----------------------|
D|-0--7-9-10--10--9-5-0-|
A|-0--5-7-8---8---7-3-0-|
E|----------------------|
D|-0--7-9-10--0--7-9-10-|
A|-0--5-7-8---0--5-7-8--|
E|----------------------|
G|-0--9-9-9-9--7-7-7-7--5-5-5-5--|
D|-0--7-7-7-7--5-5-5-5--3-3-3-3--|
A|-------------------------------|]
!КОММЕНТАРИЙ:
!В дальнейшем риффы не меняются и повторяются
!в том же порядке, в котором они выстроены выше.
!В общем структура всей песни выглядит так:
!Вступление (акустика)
!Вступление (distortion)
!Куплет
!Припев
!Проигрыш
!Куплет
!Припев
!Проигрыш
!Куплет
!Припев
!Проигрыш
Документ
Категория
Ноты, аккорды
Просмотров
15
Размер файла
3 Кб
Теги
лондоном, пятница, москва, станет
1/--страниц
Пожаловаться на содержимое документа