close

Вход

Забыли?

вход по аккаунту

?

Разное - Pink Panther

код для вставкиСкачать
Pink Panther
Ѕасс:
Ѕасс 2:
6|--3--3---6-8--3--3---1-2--|
6|-3-3-3-336-8-3-3-3-331-2--|
ќсновна¤ тема:
[---6--------|--6-------------------|--6-3---------------|--------------------|
-----8------|-----8----------------|---------------------|-------------------|
-------7----|-------6--------------|------5--------------|-3-5---------------|
------------|----------------------|---------------------|-------------------|
------------|----------------------|---------------------|-------------------|
------------|----------------------|---------------------|-------------------|
------2--------------|------1--------------|------0-------------|------------------------------|---------------------|--------------------|--4-3------3-0----------------|--3-0----------------|--3-0---------------|------------------------------|---------------------|--------------------|------------------------------|---------------------|--------------------|------------------------------|---------------------|--------------------|----------]
Pink Panther
[E-----------------------------------------------------B-----------------------------------------------------G-----------------------------------------------------D-----------------------------------------------------A--------------------------3-2-----2-1------0---------D---1-2---4-5---1-2-4-5-----2-5-------------5-2-0-2---E-----------------------------------------------------B-----------------------------------------------------G-----------------------------------------------------D--------------------------------------2-1~~~~~~~~~~--------A--------------------------3-2---------------------------D---1-2---4-5---1-2-4-5-----2-5-----------------------E-----------------------------------------------------B-----------------------------------------------------G-----------------------------------------------------D------------------------------------------------------
A--------------------------3-2-----2-1------0-----------D---1-2---4-5---1-2-4-5-----2-5-------------5-2-0-2---E-----------------------------------------------------B-----------------------------------------------------G--------------------------------------------7-9\--------D---2-0--------------------------------------7-9\--------A--------2-0---------------------------------5-7\--------D-------------5-2--/7-/7-/7-/7-5\2-0-2-2-----------------]
Документ
Категория
Ноты, аккорды
Просмотров
5
Размер файла
3 Кб
Теги
pink, разное, panther
1/--страниц
Пожаловаться на содержимое документа