close

Вход

Забыли?

вход по аккаунту

?

Разное - Бужилова Юлия - Спи

код для вставкиСкачать
Спи
!(Бужилова Юлия)
[E||------1--0----1-------|-------1--0----1-------|-------1--0----1-------|
B||-----------------3----|------------------3----|------------------3----|
G||---2------------------|----0------------------|-----------------------|
D||0---------------------|-----------------------|----3------------------|
A||----------------------|-3---------------------|-1---------------------|
E||----------------------|-----------------------|-----------------------|
--------0-------0-------|------||
-----------3-------2----|------||
------------------------|------||
-----2------------------|------||
--0---------------------|------||
------------------------|------||]
Документ
Категория
Ноты, аккорды
Просмотров
13
Размер файла
1 Кб
Теги
бужилова, разное, спи, юлия
1/--страниц
Пожаловаться на содержимое документа