close

Вход

Забыли?

вход по аккаунту

?

Разное - Кан-Кан

код для вставкиСкачать
Кан-Кан
!Классический Кан-Кан
[E---|------17--20--17--|--17--15--15----|
B||------15--15--17--|--15----------17--|--18-------------------|
G||--17--------------|------17--17------------------|
D---------------|
A---------------|
E---------------|
--17----------17--|--15----------------------------|
---------------------17--|--17--15--17--15--|--17--15--17--15--|
------16--16------|------17--17--------------------|
---------------------------------------|
---------------------------------------|
---------------------------------------|
-------------------------|------17--20--17--|--17--15--15----|
------15--15--17--|--15----------17--|--18-------------------|
------------------|------17--17------------------|
--17---------------------------------|
-------------------------------------|
-------------------------------------|
--17----------17--|--15--------------------------|
---------------------17--|--17--15--17--15--|--15------------|
------16--16------|------17--17-------------|------17--17----|
-------------------------------------|
-------------------------------------|
-------------------------------------|
-----------------------------|
--17-------------------------|
--------17-------------------|
--------------|--19----17----|--17------14--15--|--14------------|
-----------------|------17----------|------17--15----|
-----------------------------|
-----------------------------|
--17--------------------|--15------------|
--------17-------|----------14--16--|------17--17----|
--------------|--19----15----|--14--15---------------|
-----------------------------|
-----------------------------|
-----------------------------|
--17-------------------------|
--------17-------------------|
--------------|--19----17----|--17------14--15--|--14------------|
-----------------|------17----------|------17--15----|
-----------------------------|
-------------------------------|
--17---------------------------|
--------17-------|----------14--16--|--17------16------|
--------------|--19----17----|--16--17----------|------17------17--|
-------------------------------|
-------------------------------|
-------------------------------------|
-------------------------------------|
-17-----16-----|-17------16------|--17------16------|--17---17--17---17|
----17------17-|-----17------17--|------17------17-----------|
-------------------------------------|
-------------------------------------|
------------------------------------|
------------------------------------|
--17---17--17---17-|--17---17--17---17--|--17--17--17--17--|--10--------|
------------------------------------|
------------------------------------|
------------------------------------|
---------------------|------10-------------|
------11--10------|--13----13----|--13------10--11-----|
--12----------12------------|--12----12----|
-------------------------------|
-------------------------------|
-------------------------------|
------------------|------13--12--10----------|
------11--10-------------|--13--11--10-------|
--12----------12--|--10-----------------12--|--10--------|
---------------------------------|
---------------------------------|
---------------------------------|
---------------------|------10-------------|
------11--10------|--13----13----|--13------10--11-----|
--12----------12------------|--12----12----|
-------------------------------|
-------------------------------|
-------------------------------|
----------------------------||
------11--10------|------13------10-----||
--12----------12--|--10------13------|--10----------||
-------------------------|--------10----||
----------------------------||
----------------------------||]
Документ
Категория
Ноты, аккорды
Просмотров
4
Размер файла
4 Кб
Теги
разное, кан
1/--страниц
Пожаловаться на содержимое документа