close

Вход

Забыли?

вход по аккаунту

?

Разное - Крестный отец

код для вставкиСкачать
рестный отец
„асть1:|--0-5-8-7-5-8-5-7-5-1-3-0-------0-5-8-7-5-8-5-7-5-0-------|
|--------5-------5----------1----------5-------5-----4-3---|
|--------5-------5---------2-2---------5-------5---------2-|
|-------------------------------------------------------3-3|
|0-------0-------0-------0-----0-------0-------0-------2---|
|----------------------------------------------------------|
|----1-4-7---------1-4-5------------3-1-0-3-1-1-0-0--------|
|--3--------0----3--------5-------1-----------0------------|
|------------------------5-5----2-------------1-----1-2----|
|0---------6-6---------------------------------------------|
|----------------------0-----0--------3-------0-------0-323|
|--------------0-------------------------------------------|
„асть2:|--5-5-4-3----7-5-1-3-0-------0-3-0----------1---0---------|
|----------0----------1--1----------3-------3-3------------|
|--5-5-4--0-0---------0-0-0------------3-------------------|
|-------------0-----------------------3-3--------2-0-------|
|0----------------0---3-----3-------1-----0----------3-2---|
|--------3-------------------------------------------------|
Документ
Категория
Ноты, аккорды
Просмотров
6
Размер файла
1 Кб
Теги
разное, отец, крестный
1/--страниц
Пожаловаться на содержимое документа