close

Вход

Забыли?

вход по аккаунту

?

Разное - Ламбада

код для вставкиСкачать
Ламбада
1|------5---3---1---0--------------1----0-----------------------|
2|-----------------------3~~--3------------3---1---3------------|
3|------------------------------------------------------2--0--2-| \ X \ twice
!Chorus
!a)
2|----3/8---8-8--6--------3--3/10--10--10--8---------|
3|-------------------3--3-------------------------3--|
!b)
2|--------------3--6--5---3----1---5---3---1---3---|
3|-------------------------------------------------| } X twice
-
Вступление:[-5--3--1--0--------1--0-----------------------------
-------------3--3--------3--1--3--------------------
-----------------------------------2--0--2----------
----------------------------------------------------
----------------------------------------------------
----------------------------------------------------
-3--3--3--3-----------5--3--1--------1--0-----------
-------------------3-----------3--3--------3--1--3--
-------------3--3-----------------------------------
----------------------------------------------------
----------------------------------------------------
----------------------------------------------------]
!Бой: 1 всеми пальцами, кроме большого ударить по струнам вниз
!2 подушечкой большого пальца удар вниз 3 ногтем большого пальца
!удар вверх --2 РАЗА потом 1 И 3!! (!!!БОЙ ВОСЬМЁРКА!!!)
>Dm B C7 F
(1)Ветер нам принес песню из далеких жарких стран,
>Dm B C7 F
Там, где царство грез, пляски и бескрайний океан.
>Gm
Ветер виноват в том, что ритм подхватив,
>C7 Dm
Он по свету развеял мотив.
>Gm
И чарует он, как тропический сон,
>C7 Dm
Подпевает нам аккордеон...
(2)Ах, ламбада - ритм, снова нам и снова повтори!
Ах, ламбада - ритм, будем танцевать мы до зари!
Пальмы, и цветы, и луна, и мечты
В этом танце сопутствуют нам.
Жажда красоты, ах, ламбада, где же ты?
С нами вместе поет океан.
Документ
Категория
Ноты, аккорды
Просмотров
17
Размер файла
2 Кб
Теги
разное, ламбада
1/--страниц
Пожаловаться на содержимое документа