close

Вход

Забыли?

вход по аккаунту

?

Разное - Победная тема из DooM 2

код для вставкиСкачать
Победная тема из DooM 2
! 1) Старайтесь не переезжать по струне пальцем (например с 12 лада на 3)!
! 2) Это таб, а не ноты. Длительность каждой ноты не указана.
! Это легко по памяти восстановить.
! 3) Не пугайтесь! Выглядит это страшнее, чем играется!
[E ------|-10-7-2---|-----|-10-7-2-------|-12-7-3-|-0-----|-12-7-3-0---
B ------|--------3-|-2-0-|--------3-2-0-|--------|---0---|----------0-
G ------|----------|-----|--------------|--------|-----0-|------------
D ------|----------|-----|--------------|--------|-------|------------
A ------|----------|-----|--------------|--------|-------|------------
E ------|----------|-----|--------------|--------|-------|------------
E |---10-7-|-2-------|-10-7-2-----|---0-2-|-3-2-0-3-2-0---|-2-0-2-3-2-
B |--------|---3-2-0-|--------3-2-|-0-----|-------------3-|-----------
G |-0------|---------|------------|-------|---------------|-----------
D |--------|---------|------------|-------|---------------|-----------
A |--------|---------|------------|-------|---------------|-----------
E |--------|---------|------------|-------|---------------|-----------
E 0-|-3-2-3-2---|-0-2-3-2-0-3-2-0-|---2-0-2-3-5-|-3-2-9-6-2-0---|---10
B --|---------3-|-----------------|-3-----------|-------------3-|-2---
G --|-----------|-----------------|-------------|---------------|-----
D --|-----------|-----------------|-------------|---------------|-----
A --|-----------|-----------------|-------------|---------------|-----
E --|-----------|-----------------|-------------|---------------|-----
E -7-2-------|-10-7-2-|-------|-12-7-3-0---|---15-12-|-7-3-2-0-|-14-10
B -----3-2-0-|--------|-3-2-0-|----------0-|---------|---------|------
G -----------|--------|-------|------------|-0-------|---------|------
D -----------|--------|-------|------------|---------|---------|------
A -----------|--------|-------|------------|---------|---------|------
E -----------|--------|-------|------------|---------|---------|------
E -7-2-0-|---14-10-|-7-2-0---|-0-2-3-2-0-|-3-2-0---2-|-0-2-3-2-0-3-2-|
B -------|-3-------|-------3-|-----------|-------3---|---------------|
G -------|---------|---------|-----------|-----------|---------------|
D -------|---------|---------|-----------|-----------|---------------|
A -------|---------|---------|-----------|-----------|---------------|
E -------|---------|---------|-----------|-----------|---------------|
E -3-2---0-2-3-2-|-0-3-2-0---2-|-0-2-3-5-3-2-9-6-|-2-0-----10-7-2-|---
B -----3---------|---------3---|-----------------|-----3-2--------|-3-
G ---------------|-------------|-----------------|----------------|---
D ---------------|-------------|-----------------|----------------|---
A ---------------|-------------|-----------------|----------------|---
E ---------------|-------------|-----------------|----------------|---
E ----|-10-7-2-----|---12-7-|-3-0-----|-15-12-7-3-2-|-0-14-10-|-7-2-0-
B 2-0-|--------3-2-|-0------|-----0---|-------------|---------|-------
G ----|------------|--------|-------0-|-------------|---------|-------
D ----|------------|--------|---------|-------------|---------|-------
A ----|------------|--------|---------|-------------|---------|-------
E ----|------------|--------|---------|-------------|---------|-------
E --|-14-10-7-2-|-0---|-0-2-3-2-0-3-2-0-|---2-0-2-3-2-|-0-3-2-3-2---|-
B 3-|-----------|---3-|-----------------|-3-----------|-----------3-|-
G --|-----------|-----|-----------------|-------------|-------------|-
D --|-----------|-----|-----------------|-------------|-------------|-
A --|-----------|-----|-----------------|-------------|-------------|-
E --|-----------|-----|-----------------|-------------|-------------|-
E 0-2-3-2-0-3-2-0-|---2-0-2-3-|-5-3-2-9-6-2-0---|---10-7-2-----|---10-
B ----------------|-3---------|---------------3-|-2--------3-2-|-0----
G ----------------|-----------|-----------------|--------------|------
D ----------------|-----------|-----------------|--------------|------
A ----------------|-----------|-----------------|--------------|------
E ----------------|-----------|-----------------|--------------|------
E 7-|-2-------|-12-7-3-0---|---15-12-|-7-3-2-0-|-14-10-7-2-|-0---|-14-
B --|---3-2-0-|----------0-|---------|---------|-----------|---3-|----
G --|---------|------------|-0-------|---------|-----------|-----|----
D --|---------|------------|---------|---------|-----------|-----|----
A --|---------|------------|---------|---------|-----------|-----|----
E --|---------|------------|---------|---------|-----------|-----|----
E 10-7-2-0---|-0-2-3-2-|-0-3-2-0---2-|-0-2-3-2-0-3-2-|-3-2---0-2-3-|-2
B ---------3-|---------|---------3---|---------------|-----3-------|--
G -----------|---------|-------------|---------------|-------------|--
D -----------|---------|-------------|---------------|-------------|--
A -----------|---------|-------------|---------------|-------------|--
E -----------|---------|-------------|---------------|-------------|--
E -0-3-2-0---2-|-0-2-3-5-3-2-|-9-6-2-0-----10-7-|-2-------|-10-7-2----
B ---------3---|-------------|---------3-2------|---3-2-0-|--------3-2
G -------------|-------------|------------------|---------|-----------
D -------------|-------------|------------------|---------|-----------
A -------------|-------------|------------------|---------|-----------
E -------------|-------------|------------------|---------|-----------
E -|---12-7-|-3-0-----|-15-12-7-3-|-2-0-|-14-10-7-2-0---|-14-10-7-2-|-
B -|-0------|-----0---|-----------|-----|-------------3-|-----------|-
G -|--------|-------0-|-----------|-----|---------------|-----------|-
D -|--------|---------|-----------|-----|---------------|-----------|-
A -|--------|---------|-----------|-----|---------------|-----------|-
E -|--------|---------|-----------|-----|---------------|-----------|-
E 0---|-0-2-3-2-0-3-2-0-|---2-0-2-3-|-2-0-3-2-3-2-|---0-2-3-2-0-3-|-2-
B --3-|-----------------|-3---------|-------------|-3-------------|---
G ----|-----------------|-----------|-------------|---------------|---
D ----|-----------------|-----------|-------------|---------------|---
A ----|-----------------|-----------|-------------|---------------|---
E ----|-----------------|-----------|-------------|---------------|---
E 0---2-0-2-|-3-5-3-2-9-6-2-0-|-----10-7-2-----|---10-7-|-2-------|-12
B --3-------|-----------------|-3-2--------3-2-|-0------|---3-2-0-|---
G ----------|-----------------|----------------|--------|---------|---
D ----------|-----------------|----------------|--------|---------|---
A ----------|-----------------|----------------|--------|---------|---
E ----------|-----------------|----------------|--------|---------|---
E -7-3-0-|-----|-15-12-7-3-2-0-|-14-10-7-2-|-0---|-14-10-7-2-0---|-0-2
B -------|-0---|---------------|-----------|---3-|-------------3-|----
G -------|---0-|---------------|-----------|-----|---------------|----
D -------|-----|---------------|-----------|-----|---------------|----
A -------|-----|---------------|-----------|-----|---------------|----
E -------|-----|---------------|-----------|-----|---------------|----
E -3-|-2-0-3-2-0---2-|-0-2-3-2-0-3-|-2-3-2---0-2-|-3-2-0-3-2-0---2-|-0
B ---|-----------3---|-------------|-------3-----|-------------3---|--
G ---|---------------|-------------|-------------|-----------------|--
D ---|---------------|-------------|-------------|-----------------|--
A ---|---------------|-------------|-------------|-----------------|--
E ---|---------------|-------------|-------------|-----------------|--
E -2-3-5-3-|-2-9-6-2-0-----10-7-|-2-------|-10-7-2---|-----|-12-7-3-0-
B ---------|-----------3-2------|---3-2-0-|--------3-|-2-0-|----------
G ---------|--------------------|---------|----------|-----|----------
D ---------|--------------------|---------|----------|-----|----------
A ---------|--------------------|---------|----------|-----|----------
E ---------|--------------------|---------|----------|-----|----------
E ----|-15-12-7-3-|-2-0-|-14-10-7-2-0---|-14-10-7-|-2-0---|-0-2-3-2-0-
B 0---|-----------|-----|-------------3-|---------|-----3-|-----------
G --0-|-----------|-----|---------------|---------|-------|-----------
D ----|-----------|-----|---------------|---------|-------|-----------
A ----|-----------|-----|---------------|---------|-------|-----------
E ----|-----------|-----|---------------|---------|-------|-----------
E 3-|-2-0---2-0-2-|-3-2-0-3-2-3-2-|---0-2-3-2-0-|-3-2-0---2-0-2-|-3-5-
B --|-----3-------|---------------|-3-----------|-------3-------|-----
G --|-------------|---------------|-------------|---------------|-----
D --|-------------|---------------|-------------|---------------|-----
A --|-------------|---------------|-------------|---------------|-----
E --|-------------|---------------|-------------|---------------|-----
E 3-2-9-6-2-|-10-9-7-|
B ----------|--------|
G ----------|--------|
D ----------|--------|
A ----------|--------|
E ----------|--------|]
Документ
Категория
Ноты, аккорды
Просмотров
12
Размер файла
9 Кб
Теги
разное, тема, doom, победная
1/--страниц
Пожаловаться на содержимое документа