close

Вход

Забыли?

вход по аккаунту

?

Разное - Подмосковные вечера

код для вставкиСкачать
Подмосковные вечера
-----0-----------0-----------------0-3-3-5---3-1-0-------
---1---1-3---1-0-----3-----------1-----------------------
-2-----------------------2-------------------------------
-2---4---7-5-0-----------0---1-------3-1-0-------0-------
---------------------1-0---3-----------------3-1-----3---
-------------------------------------------------------1-
-
-----------------------|-----------------------------------------------------
-----------------------|-------------------------5---------------------------
-----------------------|-----5-5-7--5------4--6----7--------------5----------
-----7---5-----7--5----|---7----------8-7------------7------7-5-8---8-7-5----
-5-8---8---8-7-------5-|-8------------------------------7-5---------------8--
-----------------------|-----------------------------------------------------
-----------------------------------------------------------------------------
-----------------------------------------------------------------------------
-----------------------------------------------------------------------------
-7---5-----------------------------------------------------------------------
---------5-------------------------------------------------------------------
-----------------------------------------------------------------------------
Документ
Категория
Ноты, аккорды
Просмотров
6
Размер файла
1 Кб
Теги
разное, вечер, подмосковная
1/--страниц
Пожаловаться на содержимое документа