close

Вход

Забыли?

вход по аккаунту

?

Римский-Корсаков - Полёт шмеля

код для вставкиСкачать
ֿמכ¸ע רלוכ�
[E|12-11-10-9-10-9-8-7-8-7-6-5-4-3-2-1-0-------------------------------|
B|--------------------------------------4-3-2-3-2-1-0-1-0-------------|
G|--------------------------------------------------------3-2--1-0----|
D|-----------------------------------------------------------------4-3|
A|--------------------------------------------------------------------|
E|--------------------------------------------------------------------|
E|-------------------------------------------------------------------------------|
B|-------------------------------------------------------------------------------|
G|-------------------------------------------------------------------------------|
D|2-1-0------0--------2-1-0------0-----------------------------------------------|
A|------4------4-3-2--------4------4-3-2--7-6-5-4----3-8-7-6--7-6-5-4----3-4-5-6-|
E|-------------------------------------------------------------------------------|
E|-------------------------------------------------------------------------------|
B|-------------------------------------------------------------------------------|
G|-------------------------------------------------------------------------------|
D|7-6-5-4----3-8-7-6--7-6-5-4----3-4-5-6--7-6-5-4----5-4-3-2--3-4-5-6----7-8-7-6-|
A|-------------------------------------------------------------------------------|
E|-------------------------------------------------------------------------------|
E|-------------------------------------------------------------------------------|
B|-------------------------------------------------------------------------------|
G|-------------------------------------------------------------------------------|
D|---------------------------------4-5-6--7-6-5-4----3-8-7-6--7-6-5-4----3-4-5-6-|
A|7-6-5-4----5-4-3-2--3-4-5-6----7-----------------------------------------------|
E|-------------------------------------------------------------------------------|
E|-------------------------------------------------------------------------------|
B|-------------------------------------------------------------------------------|
G|-------------------------------------------------------------------------------|
D|7-6-5-4----3-8-7-6--7-6-5-4----3-4-5-6--7-6-5-4----5-4-3-2--3-4-5-6----7-8-7-6-|
A|-------------------------------------------------------------------------------|
E|-------------------------------------------------------------------------------|
E|----------------------------------------------------------------------------|
B|----------------------------------------------------------------------------|
G|------------------------------------------------------------3---3---3---3---|
D|7-6-5-4----5-4-3-2--3-4-5-6----7-8-7-6--7-----------------------------------|
A|------------------------------------------0-0-0----0-0-0-0------------------|
E|--------------------------------------------------------------4---4---4---4-|
E|----------------------------------------------------------------------------|
B|----------------------------------------------------------------------------|
G|2-------------------3---3---3---3----2-3-2-1----2-3-2-1--2-3-2-1----2-3-2-1-|
D|----------------------------------------------------------------------------|
A|--0-0-0----0-0-0-0-------------------0--------------------------------------|
E|----------------------4---4---4---4-----------------------------------------|
E|----------------------------------------------------------------------------|
B|----------------------------------------3-------------------4---4---4---4---|
G|2-3-4-5----6-5-4-3 2-3-4-5----6-5-4-3--------------------------------------|
D|------------------------------------------0-0-0----0-0-0-0------------------|
A|--------------------------------------------------------------4---4---4---4-|
E|----------------------------------------------------------------------------|
E|----------------------------------------------------------------------------|
B|3-------------------4---4---4---4----3-4-3-2----3-4-3-2--3-4-3-2----3-4-3-2-|
G|----------------------------------------------------------------------------|
D|--0-0-0----0-0-0-0-------------------0--------------------------------------|
A|----------------------4---4---4---4-----------------------------------------|
E|----------------------------------------------------------------------------|
E|--------------------------------------------10-9-8-7----6-11-10-9--10-9-8-7----6-7-8-9-|
B|3-4-5-6----7---------------------------------------------------------------------------|
G|-------------10-9-8--7-8-9-10----11-10-9-8---------------------------------------------|
D|---------------------------------------------------------------------------------------|
A|---------------------------------------------------------------------------------------|
E|---------------------------------------------------------------------------------------|
E|10-9-8-7----8-7-6-5 6-7-8-9----8-9-10-11 12-11-10-9----10-9-8-7 8-7-6-5----4-3-2-1-|
B|--------------------------------------------------------------------------------------|
G|--------------------------------------------------------------------------------------|
D|--------------------------------------------------------------------------------------|
A|--------------------------------------------------------------------------------------|
E|--------------------------------------------------------------------------------------|
E|0-1-0------0-1-0----0-1-0------0-1-0----0--------------------|
B|------4----------4--------4----------4-----------------------|
G|-------------------------------------------------------------|
D|---------------------------------------------2---------------|
A|-----------------------------------------------3--0------0-3-|
E|----------------------------------------------------1--------|
E|---------------------------------------------0------------|
B|-----------------------------------------------1--------1-|
G|--------------------------------------------------2---2---|
D|2-1-0------0----------------------------------------3-----|
A|------4------4-3-2--3-2-1-0-------------------------------|
E|-------------------------------4-3-2-1--0-----------------|
E|0----12-8----------8--12----0--12------------|
B|-----------10-6-10---------------------------|
G|---------------------------------------------|
D|---------------------------------------------|
A|---------------------------------------------|
E|-------------------------------------0-1-2-3-|
E|--------------------------------------------------------------------------------|
B|--------------------------------------------------------------------------------|
G|----------------------------------------9-8-7-6----5-10-9-8--9-8-7-6----5-6-7-8-|
D|---------------0----------------------------------------------------------------|
A|--0-1-2----3-4---6--7-8-7-6----7-8-7-6------------------------------------------|
E|4-------------------------------------------------------------------------------|
E|--------------------------------------------------------------------------------|
B|--------------------------------------------------------------------------------|
G|9-8-7-6----5-10-9-8--9-8-7-6----5-6-7-8--9-8-7-6----7-6-5-4--5-6-7-8---9-10-9-8-|
D|--------------------------------------------------------------------------------|
A|--------------------------------------------------------------------------------|
E|--------------------------------------------------------------------------------|
E|-------------------------------------------------------------------------------|
B|-------------------------------5-7-8-9--10-9-8-7--6-11-10-9--10-9-8-7--6-7-8-9-|
G|9-8-7-6----7-6-5-4--5-6-7-8----------------------------------------------------|
D|-------------------------------------------------------------------------------|
A|-------------------------------------------------------------------------------|
E|-------------------------------------------------------------------------------|
E|-------------------------------------------------------------------------------------|
B|10-9-8-7----6-7-8-9--10-9-8-7----6-7-8-9--10-9-8-7----8-7-6-5--6-7-8-9----10-11-10-9-|
G|-------------------------------------------------------------------------------------|
D|-------------------------------------------------------------------------------------|
A|-------------------------------------------------------------------------------------|
E|-------------------------------------------------------------------------------------|
E|------------------------------10----12-13-12-11--12-11-10-9----8-13-12-11--12-11-10-9----8-9-10-11-|
B|10-9-8-7----6-7-8-9--10-12-13----------------------------------------------------------------------|
G|---------------------------------------------------------------------------------------------------|
D|---------------------------------------------------------------------------------------------------|
A|---------------------------------------------------------------------------------------------------|
E|---------------------------------------------------------------------------------------------------|
E|12---------------8-9--10-9-8-------8-------------------------8-9-10-11--12-13-12-11----12-13-12-11-|
B|---9-10----11-12-------------12------12-11-10--9-10-11-12------------------------------------------|
G|---------------------------------------------------------------------------------------------------|
D|---------------------------------------------------------------------------------------------------|
A|---------------------------------------------------------------------------------------------------|
E|---------------------------------------------------------------------------------------------------|
E|12---------------8-9--10-9-8-------8-------------------------8-9-10-11--12-13-12-11----12-14-15-16-|
B|---9-10----11-12-------------12------12-11-10--9-10-11-12------------------------------------------|
G|---------------------------------------------------------------------------------------------------|
D|---------------------------------------------------------------------------------------------------|
A|---------------------------------------------------------------------------------------------------|
E|---------------------------------------------------------------------------------------------------|
E|17-16-15-14----15-14-13-12--13-12-11-10----9-8-7-6--5-4-3-2----3-2-1-0--1-0----------------|
B|----------------------------------------------------------------------------4-3----2-1-----|
G|---------------------------------------------------------------------------------------4-3-|
D|-------------------------------------------------------------------------------------------|
A|-------------------------------------------------------------------------------------------|
E|-------------------------------------------------------------------------------------------|
E|----------------------------------------0-1-0------0-1-0----0-1-0------0-2-3-4-|
B|-----------------------------------2-3--------4----------4--------4------------|
G|2-3-2-1----2-3-2-1--2-3-2-1----2-4---------------------------------------------|
D|-------------------------------------------------------------------------------|
A|-------------------------------------------------------------------------------|
E|-------------------------------------------------------------------------------|
E|5--------------------------------------------------------8-9-10-11----12-14-15-16-|
B|----------------------------------5-6-7-8----9-10-11-12---------------------------|
G|--------------1-2-3-4----5-6-7-8--------------------------------------------------|
D|-----2-3-4-5----------------------------------------------------------------------|
A|----------------------------------------------------------------------------------|
E|----------------------------------------------------------------------------------|
E|17----5----|
B|------5----|
G|------5----|
D|---------7-|
A|-----------|
E|-----------|]
Документ
Категория
Ноты, аккорды
Просмотров
16
Размер файла
12 Кб
Теги
полет, римский, корсаков, шмеля
1/--страниц
Пожаловаться на содержимое документа