close

Вход

Забыли?

вход по аккаунту

?

Руки Вверх - В омут

код для вставкиСкачать
В омут
1|---8-7-5-----------7-----5-4-7-5-----
2|---------5-6-----------------------
!BASS (на припев(вступление))
5|--3-2-0-----2-0--------------------------
6|--------0-1-----4-7-8--------------------
!Лучше играть на звёздах, но и так неплохо
>Am Dm
(1)Все дороги к тебе заколдованы,
>E Am
Между нами стеной, тёмный лес стоит.
>F C
Где найти мне тебя, моё солнышко,
>H E
Птичьим криком к тебе боль моя летит.
>Am Dm
Камнем вниз упаду крылья обломав,
>E Am
И поднявшись с колен тихо прошепчу:
>F C
"Где же прячешься ты моё солнышко".
>H E
Отзовись я тебя так давно ищу.
>Am Dm E Am
Припев:В омут твоих глаз снова упаду,
Полюбил тебя на свою беду.
И не убежать от моей любви,
Всё чем я живу это только ты.
(2)Я прощаюсь, с холодною осенью,
Понимая, что мы не увидимся.
Над лесами, над снежною проседью,
Я искать тебя буду любимая.
Ветер чувства мои в клочья разорвал
И холодным ручьём слёзы, как вода.
Не найти мне тебя моё солнышко,
И с тобою не быть уже никогда.
-
!Проигрыш (Можно использовать для припева)
1||-7--5--3--0--1-----5--3-1-4----- \
2||----------------------------2--- \
3||-------------------------------- \
4||-------------------------------- / 3 раза
5||-------------------------------- /
6||-------------------------------- /
1||-7--5--3--0--1-----5--3-1-4--5--
2||--------------------------------
3||--------------------------------
4||--------------------------------
5||--------------------------------
6||--------------------------------
-
!К сожалению всех слов не знаю...
!Что знал - написал. Сами слова узнаете.
> Am Dm
Я прощаюсь с холодной осенью
> E7 Am
Понимаю, что мы не увидимся
>F G C
Над лесами над снежною проседью
>Dm E7
.............. боль моя летит (прошу прощения если слова неправильные)
>Am Dm E7 Am
Припев:В омут твоих глаз снова упаду
!(и так весь припев)
!Соло играется так:
!(лад) : [8 7 5 5 6 7 5 4 7 5 8 7 5 5 6 7 5 4 7 5]
!(струна): [1 1 1 2 2 1 1 1 1 2 1 1 1 2 2 1 1 1 1 1]
!Но группа "Руки Вверх" мне совершенно НЕ НРАВИТСЯ!!!!!
!Наслаждайтесь, фанаты!
-
Соло 1:1|---3-2-0-----------2-----2-3-------
2|---------0-1---------5-4-------0---
3|---------------2-------------0---0-
4|-------------2---2-----------------
5|-----------0-----------------------
6|---0---------------2-------0-------
1|---3-2-0-----------2-----2-0-------
2|---------0-1---------5-4-------0---
3|---------------2-------------0---0-
4|-------------2---2-----------------
5|-----------0-----------------------
6|---0---------------2-------0-------
Соло 2:1|---8-7-5-----------7-----5-4-7-5---
2|---------5-6-----------------------
Документ
Категория
Ноты, аккорды
Просмотров
26
Размер файла
3 Кб
Теги
омут, руки, Вверх
1/--страниц
Пожаловаться на содержимое документа