close

Вход

Забыли?

вход по аккаунту

?

Руки Вверх - Я не отдам тебя никому

код для вставкиСкачать
"Без тормозов"
Я не отдам тебя никому
>Am Em
Ты подойди поближе, присядь со мною рядом,
>Dm Dm G
Я не могу тебя так долго ждать.
Как быстро ночь промчалась, и губ слиянье нежных
Мне больше никогда не испытать.
Ты подойди поближе, почувствуй что я рядом,
Пойми, что никуда я не уйду.
Позволь мне насладиться твоим влюблённым взглядом,
Hу где ещё такую я найду?..
> Am
Как мне сегодня хочется
> Dm
Только с тобою рядом быть,
> G
Скрасить твоё одиночество,
> C E7
Только тебя одну любить...
Я прошепчу тебе ласково,
Hежной рукою обниму,
Солнышко ты моё ясное,
Я не отдам тебя никому.
Ты подойди поближе, поговори со мною,
Я так хочу услышать голос твой.
Я так хочу сегодня забыть о всём с тобою,
В объятьях самой нежной и родной.
Ты подойди поближе, и будь сама собою,
Я не могу тебя так долго ждать.
Как быстро ночь промчалась, а нам ещё с тобою,
Ещё о многом нужно помечтать...
-
!Я точно не помню, кассеты нет, но по-моему в этой вещи дело было так:
> Am(V) Em(VII)
1||------5-------5-----------5-----5--|-------7-----7-----------7--7-------||
2||----5---5-------5-------5---5-----5|-----8---8-----8--------8-8--8------||
3||--5-------5-----------5-------5----|---9-------9-----------9---9--------||
4||-----------------------------------|-9--------------------9-------------||
5||-----------------------------------|------------------------------------||
6||-5------------------5--------------|------------------------------------||
Ты подойди поближе, присядь со мною рядом,
> Dm(V) F(V) G(VII)
1||-------5----5-------------5----5---|-------5-----5---|-------7-----7----||
2||-----6---6----6---------6---6----6-|-----6---6-----6-|-----8---8-----8--||
3||---7-------7----------7-------7----|---5-------5-----|---7-------7------||
4||-7------------------7--------------|-----------------|------------------||
5||-----------------------------------|-8---------------|-10---------------||
6||-----------------------------------|-----------------|------------------||
Я не могу тебя так долго жда- -ать.
Как быстро ночь промчалась, и губ слиянье нежных
Мне больше никогда не испытать.
> Am(V)
Припев:Как мне сегодня хочется
> Dm(V)
Только с тобою рядом быть,
> G(VII)
Скрасить твоё одиночество,
> C(III) E(IV)
Только тебя одну любить...
-
>Am(V)
(1)Ты подойди поближе,
>Em/B(VII)
Присядь со мною рядом.
>Dm(V) Em/B(VII)
Я не могу тебя так долго ждать.
Как быстро ночь промчалась
И губ слияний нежных
Мне больше никогда не испытать.
Ты подойди поближе,
Почувствуй что я рядом.
Пойми, что никуда я не уйду.
Позволь мне насладиться
Твоим влюбленным взглядом.
Hу где еще такую я найду?
> Am(V)
Припев:Как мне сегодня хочется
> Dm(V)
Только с тобой рядом быть.
> Dsus4/A(V) C(III) Bb/F
Скрасить твое одиночество,
Только тебя одну любить.
Я прошепчу тебе ласково,
Hежной рукою обниму.
Солнышко ты мое ясное!
Я не отдам тебя ни кому!
(2)Ты подойди поближе,
Поговори со мною.
Я так хочу услышать голос твой.
Я так хочу сегодня
Забыть о всем с тобою.
В объятьях самой нежной и родной.
Ты подойди поближе
И будь сама собою.
Я не могу тебя так долго ждать.
Как быстро ночь промчалась,
А нам еще с тобою
Еще о многом нужно помечтать.
!Припев } 2 раза
Я прошепчу тебе ласково,
Hежной рукою обниму.
Солнышко ты мое ясное!
Я не отдам тебя ни кому!
!------------------------------------------------
!Hекоторые аккорды:
>Dsus4/A Bb/F Em/B(VII)
|-5-| |-1-| |-5-|
|-8-| |-3-| |-6-|
|-7-| |-3-| |-7-|
|-5-| |-2-| |-7-|
|-5-| |-1-| |-5-|
|-5-| |-1-| |-5-|
Документ
Категория
Ноты, аккорды
Просмотров
47
Размер файла
4 Кб
Теги
никому, отдам, руки, Вверх
1/--страниц
Пожаловаться на содержимое документа