close

Вход

Забыли?

вход по аккаунту

?

Сансара - Все возможно

код для вставкиСкачать
Все возможно
Вступление: *вопль* <C#m>
E|----------4-4-------------||*---------------------------|
H|--------------7-7-5-5-4-4-||*---4-2-4-2-----4-2-4-2-----|
> F#m G# C#m
E|-------------------4---------|---------------------------|
H|--5-4-5-4-----2/-7----7-5-4--|---4-2-4-2-----4-2-4-2-----|
> F#m G#
E|--------------4-4-------------*|
H|--5-4-5-4---------7-7-5-5-4-4-*|
!\_Во второй раз не играть
Соло:< C#m A E G#>
E|----------------------|---------------------------|
H|--2------5------------|------------4----1---------|
G|------------2------2--|--1------1------------1----|
> C#m A E G#
E|------------5---------|--4------------------------|
H|--2------5---------5--|---------5--4----1---------|
G|----------------------|----------------------1----|
Документ
Категория
Ноты, аккорды
Просмотров
30
Размер файла
1 Кб
Теги
сансара, возможно
1/--страниц
Пожаловаться на содержимое документа