close

Вход

Забыли?

вход по аккаунту

?

Сектор Газа - Демобилизация

код для вставкиСкачать
2000 - Восставший из Ада
Демобилизация
>Am
(1)Скорый поезд к дому мчится
Полечу домой, как птица.
> A7 Dm
Полечу, как птица, я.
Жизнь начнется без авралов,
> Am
Сундуков и генералов:
> E Am A7
Демобилизация.
(2)Я приеду к тебе вскоре,
Будет спать спокойно город
В клёнах и акациях.
Я прижмусь к тебе щекою,
Ты смахнёшь слезу рукою.
Демобилизация.
(3)Мы пройдемся под луною
Рядом с будущей женою
Каблучками цокая.
Не боясь за то в награду
Получить пяток наряду.
Демобилизация.
> Hm
(4)И поднимем мы бокалы
В самых лучших ресторанах
> H7 Em
Не боясь нотации.
Не боясь за эту шутку
> Hm
Получить пятнадцать суток.
> F(диез) Hm H7
Демобилизация. А-А-А.
> Cm(Диез)
(5)Скорый поезд к дому мчится,
Прилетел домой, как птица.
> C7(Диез) F(Диез)
Прилетел, как птица, я.
Снял погоны и петлицы
> Cm(Диез)
И уже успел напится.
> G(Диез) Cm(Диез) С7(Диез)
Демобилизация. А-А-А.
-
Intro:<Cm Gm D Gm>
> Gm
Скорый поезд к дому мчиться.
Полечу домой как птица
> G7 Cm
Полечу как птица я.
Жизнь начнётся без авралов,
> Gm
Сундуков и генералов -
> D(D7) Gm(G)
Демобилизация.
Я приеду к тебе вскоре
Будет спать спокойно город
В клёнах и акациях.
Я прижмусь к тебе щекою,
Ты смахнёшь слезу рукою -
Демобилизация.
И пройдёмся под луною
Рядом с будущей женою,
Каблучками цокая.
Не боясь за то в награду
Получить пяток наряду -
Демобилизация.
> Am
И поднимем мы бокалы
В самых лучших ресторанах,
>A7 Dm
Не боясь нотации.
Не боясь за эту шутку
>Am
Получить пятнадцать суток -
>E7 Am
Демобилизация.
> Hm
Скорый поезд к дому мчиться.
Прилетел домой как птица,
> H7 Em
Прилетел как птица я.
Снял погоны и петлицы
> Hm
И уже успел напиться -
> F7 Hm
Демобилизация.
!Соло после 4 куплета:
!Вариант 1.
[G|-5-4-2----5-4-2-----5-5-5-5-5-4-2-2--------7-6---7-
D|---------2---------2----------------------2-2-2-----2----
G|-7-7-7-7-7-7-5-4-2-2-2-4-5-5-4-2-4-4-4-2-1-4-2----| } играть 2 раза
D|----------------------------------------------------------3-2|]
!Вариант 2.
[E|---------0--------0--------------------0-0-0------0----
H|-1-0------1-0-----1-1-1-1-1-0-------------3-2-------
G|------2--------2------------------2-2----------------3-
E|--------------------------------------------------------1-0|
H|-3-3-3-3-3-3-1-0--------0-1-1-0---0-0-0-----0-------| } играть 2 раза
G|---------------------2-2-2----------2--------2-1---2-----|]
-
1|------------------|-----------------|-0-0-0-------0----|
2|-1-0------1-0-----|-1-1-1-1-1-0-----|--------3-2-----3-|
3|-----2--------2---|-------------2---|------------------|
4|-------2--------2-|---------------2-|------------------|
1|-----------------|------------------|----------------|-1--0-|
2|-3-3-3-3-3-3-1-0-|--------0-1-1-0---|-0-0-0------0---|------|
3|-----------------|-2-2-2----------2-|--------2-1---2-|------|
4|-----------------|------------------|----------------|------|
1|-----------------|------------------|----------------|
2|-3-3-3-3-3-3-1-0-|--------0-1-1-0---|-0-0-0------0---|
3|-----------------|-2-2-2----------2-|--------2-1---2-|
4|-----------------|------------------|----------------|
Документ
Категория
Ноты, аккорды
Просмотров
4
Размер файла
4 Кб
Теги
сектор, демобилизация, газа
1/--страниц
Пожаловаться на содержимое документа