close

Вход

Забыли?

вход по аккаунту

?

Сектор Газа - Карданный вал - ваучер

код для вставкиСкачать
*√ј«ќ¬јя ј“ј ј*
арданный вал - ваучер
INTRO:{playing on guitar}
!x4 times
1|------------------------
2|------------------------
3|------------------------
4|--------2---------------
5|-----2-----1------1-----
6|--0------------3-----1--
!Then bass plays that:
! {bass}
1|------------------------|
2|--------2---------------|
3|-----2-----1------1-----|
4|--0------------3-----1--|.............
! {guitar}
1|--0-----3---------3-------0-----3-----
2|--0--------3------3-------0--------3--
3|---------------------4----------------
4|--------------------------------------
5|--------------------------------------
6|--------------------------------------
! {bass}
|............................................................
|
! |{guitar}
1|------------------------------------------------------------
2|-----5-------------8---------------5-------------8----------
3|--4-----4--0----7-----7--(4)----4-----4--0----7-----7--(4)--
4|----------(2)-------------5-------------(2)-------------5---
5|------------------------------------------------------------
6|------------------------------------------------------------
! {bass}
|...............
|
! |{guitar}
1|---------------|--------|
2|-----5---------|--------|
3|--4-----4--0---|--------|
4|----------(2)--|--x-----|
5|---------------|--x-----|
6|---------------|--x-----|
!x4 times
!{w/distortion}
1|------------------------
2|------------------------
3|------------------------
4|--------2---------------
5|-----2-----1------1-----
6|--0------------3-----1--
! {some muting}
1|---------------------------------------
2|---------------------------------------
3|---------------------------------------
4|--2-2-2-2-2-2-2-2-2-2-2-2-2-2-(2)-(2)--
5|--2-2-2-2-2-2-2-2-2-2-2-2-2-2-(2)-(2)--
6|--0-0-0-0-0-0-0-0-0-0-0-0-0-0-(0)-(0)--
1|-------------------------------------
2|-------------------------------------
3|-------------------------------------
4|--9--8--7--5-7-5-7--2-2-2-2-(2)-(2)--
5|--9--8--7--5-7-5-7--2-2-2-2-(2)-(2)--
6|--7--6--5--3-5-3-5--0-0-0-0-(0)-(0)--
1|-------------------------------------
2|-------------------------------------
3|-------------------------------------
4|--9--8--7--5-7-5-7--2-2-2-2-(2)-(2)--
5|--9--8--7--5-7-5-7--2-2-2-2-(2)-(2)--
6|--7--6--5--3-5-3-5--0-0-0-0-(0)-(0)--
!{then the drummer have to do all the best to complete the song}
!{I guess there is something played near to E chord at the end}
Lyrics:ќткрой дверь
Ёто ваучер
“уши свет
это ваучер
а ну получи
свой ваучер
при-ва-ти-зационный чек
при-ва-ти-зационный чек
ваучер ваучер
ваучер
Документ
Категория
Ноты, аккорды
Просмотров
19
Размер файла
3 Кб
Теги
сектор, ваучер, карданный, вал, газа
1/--страниц
Пожаловаться на содержимое документа