close

Вход

Забыли?

вход по аккаунту

?

Серега - Кукла

код для вставкиСкачать
Кукла
> Gm #A
1)---3-----3--8--6--5--6----|----5-----5---8--6--5--6--5---
2)---3-----3--------------8-|----5-----5-------------------
3)---3-----3----------------|----6-----6-------------------
4)--------------------------|------------------------------
5)--------------------------|------------------------------
6)-3----3-------------------|-6------6---------------------
> Cm D
1)------3-------3--8--6--5--6--8--|-----2--------2--2--3--5--2--3-
2)------4-------4-----------------|-----3--------3----------------
3)------5-------5-----------------|-----2--------2----------------
4)--------------------------------|-0-------0---------------------
5)---3-------3--------------------|-------------------------------
6)--------------------------------|-------------------------------
!Каждый аккорд нужно сразу после удара глушить посредством легонького
!поднятия пальцев левой руки. Так больше на оригинал похоже...
!Но мне кажеться второй аккорд <#А> лучше заменить на первый...
!тоесть дважды сыграть первый.. а потом сразу <Cm>..
-
>Gm
1)---3-----3--8--6--5--6--|-----3-----3---8--6--5--6--5---
2)---3-----3--------------8|-----3-----3-------------------
3)---3-----3---------------|-----3-----3-------------------
4)--------------------------|------------------------------
5)--------------------------|--1-----1----------------------
6)-3----3------------------|----------------------------
>Cm D
1)------3-------3--8--6--5--6--8--|-----2--------2--2--3--5--2--3-
2)------4-------4-----------------|-----3--------3----------------
3)------5-------5-----------------|-----2--------2----------------
4)--------------------------------|-0-------0---------------------
5)---3-------3--------------------|-------------------------------
6)--------------------------------|-------------------------------
Документ
Категория
Ноты, аккорды
Просмотров
23
Размер файла
2 Кб
Теги
серега, куклы
1/--страниц
Пожаловаться на содержимое документа