close

Вход

Забыли?

вход по аккаунту

?

Сплин - Бог устал нас любить

код для вставкиСкачать
Гранатовый альбом (1998)
Бог устал нас любить
!(А. Васильев)
Intro:<Am Am/D G>
> Am Am/D G
Мы чересчур увеличили дозу
Вспомнили все что хотели забыть
Или на рельсы легли слишком поздно
> G Am
Бог устал нас любить
> G Am
Бог устал нас любить
> Am/D G
Бог просто устал нас любить
> Am/D G
Бог просто устал
Вот она гильза от пули навылет
Карта которую нечем покрыть
Мы остаемся одни в этом мире
Бог устал нас любить
Бог устал нас любить
Бог просто устал нас любить
Бог просто устал
Я рассказал бы тебе все что знаю
Только об этом нельзя говорить
Выпавший снег никогда не растает
Бог устал нас любить
Бог устал нас любить
Бог просто устал нас любить
Бог просто устал
-
[E---------0----------------2------------0------0-------0------------
B-------1---1------------1---1--------0---0-------0-------0---------
G-----2-------2--------2-------2----0-------0-------0--------0------
D------------------0------------------------------------------------
A-0-----------------------------------------------------------------
E---------------------------------3---------------------------------]
Intro:<Am Am/D G6>
> Am D7 G
Мы чересчур увеличили дозу
Вспомнили все что хотели забыть
Или на рельсы легли слишком поздно
> Am D7 G
Бог устал нас любить
Бог устал нас любить
Бог просто устал нас любить
Бог просто устал
Вот она, гильза от пули навылет
Карта которую нечем покрыть
Мы остаемся одни в этом мире
Бог устал нас любить
Бог устал нас любить
Бог просто устал нас любить
Бог просто устал
Я рассказал бы тебе все что знаю
Только об этом нельзя говорить
Выпавший снег никогда не растает
Бог устал нас любить
Бог устал нас любить
Бог просто устал нас любить
Бог просто устал
-
!концертный вариант (в другой тональности)
>Dm G C
Мы череcчур увеличили дозу
Вспомнили все, что хотели забыть
Или на рельсы легли слишком поздно
Бог устал нас любить
Бог просто устал
Вот она гильза от пули навылет
Карта, которую нечем покрыть
Мы остаемся одни в этом мире
Бог устал нас любить
Бог просто устал
Я рассказал бы тебе все что знаю
Только об этом нельзя говорить
Выпавший снег никогда не растает
Бог устал нас любить
Бог просто устал
!Начинать петь нужно со спец. метки * , далее
!играется сей перебор без остановки. У кого с чувством ритма
!все в порядке, тот разберется.
> C Dm * G
1|--0------0-----0-----0^3-1-0---1-----0^1---------------1-------
2|-------1-----1-----1---------------3-------3--------0--0---0---
3|-----0-----0-----0---------------2-------2--------0------0----- } xn
4|-------------------------------0-------------------------------
5|--3------------------------------------------------------------
6|-----------------------------------------------3---------------
Концовка:< C>
1|--0------0-----0^3-1-0--0--
2|-------1-----1-------------
3|-----0-----0---------------
4|---------------------------
5|--3---------------------3--
6|---------------------------
-
>Am D7/F# G6
[--------------
-1----1----0--
-2----2----0--
-2----0----0--
-0------------
------2----3--]
Intro:<Am D7/F# G6>
>Am D7/F# G6
Мы чересчур увеличили дозу
вспомнили все что хотели забыть
Или на рельсы легли слишком поздно
> G6 Am
Бог устал нас любить
> D7/F# G6
Бог устал нас любить
> Am
Бог просто устал нас любить
> D7/F# G6
Бог просто устал
вот она, гильза от пули навылет
Карта, которую нечем покрыть
Мы остаемся одни в зтом мире
Бог устал нас любить
Бог устал нас любить
Бог просто устал нас любить
Бог просто устал
Я рассказал бы тебе все что знаю
Только об зтом нельзя говорить
выпавший снег никогда не растает
Бог устал нас любить
Бог устал нас любить
Бог просто устал нас любить
Бог просто устал
!P.S. для ленивых:
[----------------------------------------------------
-------1-----------1------------0------0-----3--1-0-
-----2---2-------2---2--------0---0------0----------
---2-------2---0-------0----0-------0------0--------
-0--------------------------------------------------
--------------2-----------3-------------------------]
-
Intro:<Am Am/D G6>
> Am Am/D G6
Мы чересчур увеличили дозу
Вспомнили все что хотели забыть
Или на рельсы легли слишком поздно
> G6 Am
Бог устал нас любить
> G6 Am
Бог устал нас любить
> Am/D G6
Бог просто устал нас любить
> Am/D G6
Бог просто устал
Вот она, гильза от пули навылет
Карта которую нечем покрыть
Мы остаемся одни в этом мире
Бог устал нас любить
Бог устал нас любить
Бог просто устал нас любить
Бог просто устал
Я рассказал бы тебе все что знаю
Только об этом нельзя говорить
Выпавший снег никогда не растает
Бог устал нас любить
Бог устал нас любить
Бог просто устал нас любить
Бог просто устал
-
>Am D7 G
Мы чересчур увеличили дозу,
>Am D7 G
Вспомнили все что хотели забыть.
>Am D7 G
Или на рельсы легли слишком поздно,
> Am
Бог устал нас любить,
> D7 G
Бог устал нас любить,
> Am
Бог просто устал нас любить,
> D7 G
Бог просто устал...
Вот она, гильза от пули навылет,
Карта которую нечем покрыть.
Мы остаемся одни в этом мире,
Бог устал нас любить,
Бог устал нас любить,
Бог просто устал нас любить,
Бог просто устал...
Я рассказал бы тебе все что знаю,
Только об этом нельзя говорить.
Выпавший снег никогда не растает,
Бог устал нас любить,
Бог устал нас любить,
Бог просто устал нас любить,
Бог просто устал...
Документ
Категория
Ноты, аккорды
Просмотров
17
Размер файла
6 Кб
Теги
нас, устав, бог, сплин, любит
1/--страниц
Пожаловаться на содержимое документа