close

Вход

Забыли?

вход по аккаунту

?

Сплин - Бонни и Клайд

код для вставкиСкачать
Фонарь под глазом (1997)
Бонни и Клайд
> C Am
Никому не доверяй
> Dm
Наших самых страшных тайн,
> C Am Dm
Никому не говори, как мы умрем.
В этой книге между строк
Спрятан настоящий бог,
Он смеется, он любуется тобой.
Ты прекрасна, словно взмах
Волшебной палочки в руках
Незнакомки из забытого мной сна.
Мы лежим на облаках,
А внизу бежит река,
Нам вернули наши пули все сполна.
-
> Am G E Am
[e|-----|---------------|-------|-------|-----------------|
H|-----|-0--0----0--0--|--0----|---0---|--31-0-13-1-0-1--|
G|-----|--2--2----2--2-|----0--|----1--|-----------------|
D|-----|2--2--2-2--2--2|-----0-|------2|----------------2|
A|---30|-------0-------|------0|--2----|-0---------------|
E|-03--|---------------|-3-----|-0-----|-----------------|
>G E Am
e|-------|-------|-----------------|
H|--0----|---0---|--31-0-13-1-0-1--|
G|----0--|----1--|-----------------|
D|-----0-|------2|----------------2|
A|------0|--2----|-0---------------|
E|-3-----|-0-----|-----------------|
Проигрыш:A|----30------
E|-003--------]
!Если кому-то поможет, вот партия вокала:
[e|000--------------0--000------------
H|----33-10--01-12--1-----33-1010--1-
G|----------2---------------------2--]
!И играть лучше так:
> Am G C Am
[e|---5---|---3---|---0---|----|
H|---5---|---3---|---1---|----|
G|---5---|---4---|---0---|-5--|
D|----7--|-------|--2-2--|-7--|
A|--7--7-|--5----|-3-----|-7--|
E|-5-----|-3-----|-------|-5--|
> Am GE Am
e|---5---|----|---|----|
H|---5---|----|---|----|
G|---5---|----|-1-|-5--|
D|----7--|----|-2-|-7--|
A|--7--7-|--5-|-2-|-7--|
E|-5-----|-3--|-0-|-5--|]
> Am G C C Am
Никому не доверяй наших самых страшных тайн,
> Am G (E) Am
Никому не говори как мы умрем.
> Am G
В этой книге, между строк,
> C C Am
Спрятан настоящий Бог.
> Am G Am
Он смеется, он любуется тобой.
Ты красива, словно взмах волшебной палочки в руках,
Незнакомки из забытого мной сна.
Мы лежим на облаках,
А внизу бежит река } 2 раза.
Нам вернули наши пули все сполна
-
intro:<Dm C Am x2>
> C Am Dm
НИКОМУ НЕ ДОВЕРЯЙ НАШИХ САМЫХ СТРАШНЫХ ТАЙН,
> C Am Dm
НИКОМУ НЕ ГОВОРИ, КАК МЫ УМРЕМ;
В ЭТОЙ КНИГЕ МЕЖДУ СТРОК СПРЯТАН НАСТОЯЩИЙ БОГ,
ОН СМЕЕТСЯ, ОН ЛЮБУЕТСЯ ТОБОЙ...
ТЫ КРАСИВА, СЛОВНО ВЗМАХ ВОЛШЕБНОЙ ПАЛОЧКИ В РУКАХ
НЕЗНАКОМКИ ИЗ ЗАБЫТОГО МНОЙ СНА;
МЫ ЛЕЖИМ НА ОБЛАКАХ, А ВНИЗУ БЕЖИТ РЕКА, \ 2 раза
НАМ ВЕРНУЛИ НАШИ ПУЛИ ВСЕ СПОЛНА /
Документ
Категория
Ноты, аккорды
Просмотров
9
Размер файла
3 Кб
Теги
клайв, бонни, сплин
1/--страниц
Пожаловаться на содержимое документа