close

Вход

Забыли?

вход по аккаунту

?

Сплин - Мое сердце

код для вставкиСкачать
25-й кадр (2001)
Мое сердце
!(А. Васильев)
! <C>(<d>) <F>(<G>) <C>(<d>)
Мы не знали друг друга до этого лета,
! <F>(<G>) <C> (<d>) <G>(<A>) <Am> (<Hm>)
Мы болтались по свету, земле и воде.
И совершенно случайно мы взяли билеты
На соседние кресла на большой высоте
! <C(d) F(G) C(d) G> (<A>) <Am> (<Hm>)
И моё сердце остановилось, моё сердце замерло } 2 раза
И ровно тысячу лет мы просыпаемся вместе
Даже если уснули в разных местах.
Мы идём ставить кофе под Элвиса Пресли,
Кофе сбежало под Propeller Heads, ах!
И моё сердце остановилось, моё сердце замерло } 2 раза
И, может быть, ты не стала звездой в Голливуде
Не выходишь на подиум в нижнем белье
У тебя не берут автографы люди,
Поёшь ты чуть тише, чем Монсерат Кабалье
Так и я, слава Богу, не Ricky, не Martin,
Не выдвигался на Оскар, французам не забивал.
Моим именем не назван город на карте,
Но задёрнуты шторы и разложен диван
И моё сердце остановилось, моё сердце замерло } 2 раза
Я наяву вижу то, что многим даже не снилось,
Не являлось по кайфом, не стучалось в стекло.
Моё сердце остановилось, отдышалось немного
И снова пошло.
И моё сердце остановилось, моё сердце замерло } 2 раза
И моё сердце asta la vista, моё сердце замерло.
-
!(solo+проигрыш)
!Сначала внимательно послушайте песню и найдите где и как играть “Мелодию”, а где и как !Solo. А аккорды, я считаю, Jenich подобрал правильно, так, что их и слова спишите у него.
“Мелодия”:[E ---2--2--3--5---2--7--5--3--5--2---2--3--5---2--3--2--------
H ---------------------------------------------------------3--]
Solo:[E -10--10-10-9----------10--10-10-12-14--12-10-12-10-9-10-9---10--10-10-9
H -------------10-12-10------------------------------------12------------
E-------------9-12-15-15-15-15| D (II)
H--10-8-7-10------------------|]
Проигрыш:[e|------------7----------|-----------------| } 2 раза
h|7-7-8-10-7----10-8-10-7|7-8-10-7-7/8-7-\3|]
!Соло
(10/14)
[e|/10~--10-10-9---------------|/10~--10-9-12/14~--12-10/12\10-9/10\9-7|
h|--------------10~-10/12-10~-|---------------------------------------|
e|10~---10-10-9----------|5~--/9~--/12~--/15~|
h|--------------10~-8-7~-|-------------------|]
!Последовательность аккордов в проигрыше точно как в припеве (<D-D-G-D-D-D-A-Hm>), и
!в соло скорее всего такая же.
/ - слайд вверх
\ - слайд вниз
~ - вибрато
-
!На первой струне (в скобках вторая)
[0 2 3 5 2
7 5 3 5 2
2 3 5 2
3 2 (2)3]
-
[E--2-2-3-5-5-2-5-2--2-7-5-3-5--2-2-3-5-5-2-5-2-2-3-3-2-------2-2-3-5--2-7-5-3-5--2-2-3-5--2-3-2-----------
B-------------------------------------------------------3---------------------------------------3---------
G---------------------------------------------------------------------------------------------------------
D---------------------------------------------------------------------------------------------------------
A---------------------------------------------------------------------------------------------------------
E---------------------------------------------------------------------------------------------------------]
-
D
1)-----------------------------------------------------------------------------------------------------------------------------------
2)--3----3-3-2--------------3----3-3-5-7----5-3-5-3-2-3-2----3----3-3-2------------------2----5----8-8-8-8--------
3)----------------2--4-2-------------------------------------------------------------2--0-----2----------------------------------
4)--------------------------------------------------------------------------------------------4-------------------------------------
-
> D G D
Мы не знали друг друга до этого лета
> G D A7 Hm
Мы болтались по свету в земле и воде
И совершенно случайно мы взяли билеты
На соседние кресла на большой высоте
> D G D
И мое сердце остановилось
> A7 Hm
Мое сердце замерло
Мое сердце остановилось
Мое сердце замерло
[e ---2-2-3-5---2---7---5-3-5-2-2-3-5---2---3-2-----
B ---------------------------------------------3---]
И ровно тысячу лет мы просыпаемся вместе
Даже если уснули в разных местах
Мы идем ставить кофе под Элвиса Пресли
Кофе сбежал про Propellerheads, ах
И мое сердце остановилось
Мое сердце замерло
Мое сердце остановилось
Мое сердце замерло
И, может быть, ты не стала звездой в Голливуде
Не выходишь на подиум в нижнем белье
У тебя не берут автографы люди
И поешь ты чуть тише, чем Монсеррат Кабалье
Ну и я, слава Богу, ни Рикки, ни Мартин
Не выдвигался на Оскар
Французам не забивал
Моим именем не назван город на карте,
Но задернуты шторы и разложен диван
И мое сердце остановилось
Мое сердце замерло
Мое сердце остановилось
Мое сердце замерло
[e ---/10----10-10-9-5----5h7--5---
e ---/10---10-10-12-14---12-10-12--10-9-10--9-7-
e ---/10----10-10-9-5----3--2---
e ---5----9----12----15-15-15-15---]
Я наяву вижу то, что многим даже не снилось
Не являлось под кайфом,
Не стучалось в стекло
Мое сердце остановилось
Отдышалось немного
И снова пошло
Мое сердце остановилось
Мое сердце замерло
Мое сердце остановилось
Мое сердце замерло
И мое сердце astalavista
Мое сердце замерло
И мое сердце остановилось
Мое сердце замерло
-
>C F C
Мы не знали друг друга до этого лета
> F C G Am
Мы болтались по свету,земле и воде
>C F C
И совершенно случайно мы взяли билеты
> F C G C
На соседние кресла на большой высоте
> C F C
И моё сердце остановилось
> G Am
Моё сердце замерло
> C F C
Моё сердце остановилась
> G Am
Моё сердце замерло
И ровно иысячу лет мы просыпаемся вместе
Даже если уснули в разных местах
Мы идем ставить кофе под Элвиса Пресли
Кофе сбкжал опд Прапелер Хедз ах!
!пр.
И может быть ты не стала звездой в голивуде
Не выходишь на подиум в нижнем белье
У тебя ьне берут автографы люди
И поешь ты чуть ниже чем Мансарат Кобалье
Так и я слава богу не Рикки не Мартин
Не выдвигвлся на оскар французам не забивал
Моим именем не назван город на карте
Но задернуты шторы и разложен диван
!пр.
Я наяву вижу то что многим даже не снилось
Не являлось под кайфом не стучалось в окно
Моё сердце...остановилось...
Отдышалось немного....и снова пошло
!пр.
И моё сердце astalavista
Моё сердце замерло...
-
> D G D
Мы не знали друг друга до этого лета,
> G D A D
Мы болтались по свету в земле и воде.
> D G D
И совершенно случайно мы взяли билеты
> G D A D
На соседние кресла на большой высоте.....
> D G D
Припев:И моё сердце остановилось
>Hm A D
Моё сердце замерло.....
>D G D Hm A D
И ровно тысячу лет мы просыпаемся вместе,
Даже если уснули в разных местах.
Мы идём ставить кофе под Элвиса Пресли
Кофе сбежал под Propellers из Ah (?)
!Припев
И пусть ты не стала звездой Голливуда,
Не выходишь на подиум в нижнем белье.
У тебя не берут автографы люди,
И поёшь ты чуть тише чем Монсерат Кобалье.
Ну так и я, слава Богу, не Рики не Мартин,
Не выдвигался на оскар, французам не забивал.
Моим именем не назван город на карте,
Но зашторены окна и разложен диван.
!Припев + <G D G D G D A A7>
Я на яву вижу то, что многим даже не снилось,
Не являлось под кайфом, не стучалось в стекло.
Моё сердце остановилось - отдышалось немного...
И снова пошло...
И моё сердце - асталависта
Моё сердце замерло........
-
>F B D# B
Мы не знали друг друга до этого лета,
>D# B F B
Мы болтались по свету земле и воде.
>F B D# B
И совершенно случайно мы взяли билеты
> D# B F B
На соседние кресла на большой высоте.
>F B D# B
Припев:И мое сердце остановилось,
> D# B F B
Мое сердце замерло.
И мое сердце остановилось,
Мое сердце замерло.
И ровно тысячу лет мы просыпаемся вместе,
Даже если заснули в разных местах.
Мы идем ставить кофе под Элвиса Пресли,
Кофе сбежал под Propellerheads, ах…
!Припев
И, может быть, ты не стала звездой в Голливуде,
Не выходишь на подиум в нижнем белье.
У тебя не берут автографы люди,
И поешь ты чуть тише, чем Монсеррат Кабалье.
Ну, так и я, слава богу, не Рикки Мартин,
Не выдвигался на Оскар, французам не забивал.
Моим именем не назван город на карте,
Но задернуты шторы, и разложен диван.
!Припев
Я наяву вижу то, что многим даже не снилось,
Не являлось под кайфом, не стучалось в стекло.
Мое сердце… остановилось…
отдышалось немного…
и снова пошло.
И мое сердце остановилось,
Мое сердце замерло.
И мое сердце остановилось,
Мое сердце замерло.
И мое сердце асталависта,
Мое сердце замерло.
И мое сердце остановилось,
Мое сердце замерло.
-
1)-------------7-5---5---------------------------------------------
2)--7-8-10--7------8---7--7-8-10-7-8-7-----------------------------
3)-------------------------------------7---------------------------
4)-----------------------------------------------------------------
-
> D G D
Мы не знали дpyг дpyга до этого лета,
> G D A7 Hm
Мы болтались по светy в земле и воде.
И совеpшенно слyчайно мы взяли билеты
Hа соседние кpесла на большой высоте.
> D G D
И мое сеpдце остановилось,
> A7 Hm
Мое сеpдце замеpло.
Мое сеpдце остановилось,
Мое сеpдце замеpло.
И pовно тысячy лет мы пpосыпаемся вместе,
Даже если yснyли в pазных местах.
Мы идем ставить кофе под Элвиса Пpесли,
Кофе сбежал под Propellerheads, ах...
И мое сеpдце остановилось,
Мое сеpдце замеpло.
Мое сеpдце остановилось,
Мое сеpдце замеpло.
И может быть ты не стала звездой в Голливyде,
Hе выходишь на подиyм в нижнем белье.
У тебя не беpyт автогpафы люди,
И поешь ты чyть тише, чем Монсеppат Кабалье
Нy так и я, слава Богy, ни Рикки ни Маpтин,
Hе выдвигался на Оскаp, фpанцyзам не забивал.
Моим именем не назван гоpод на каpте,
Hо задеpнyты штоpы и pазложен диван.
И мое сеpдце остановилось,
Мое сеpдце замеpло.
Мое сеpдце остановилось,
Мое сеpдце замеpло.
Я наявy вижy то, что многим даже не снилось,
Hе являлось под кайфом, не стyчалось в стекло.
Мое сеpдце остановилось,
Отдышалось немного и снова пошло.
Мое сеpдце остановилось,
Мое сеpдце замеpло.
Мое сеpдце остановилось,
Мое сеpдце замеpло.
И мое сеpдце astalavista,
Мое сеpдце замеpло.
Мое сеpдце остановилось,
Мое сеpдце замеpло.
-
!Этo мoя любимaя пecня y ceй кoмaнды.
!Пoпpoбyйтe пpoигpaть вoт этo (нeмнoгo нe
!yвepeн в цeнтpe coльникa):
Пpoигpыш:1)------------5----------7---5--------5-----------------5-----------------
2)-----7--8-------7--------------8--------7------7--8--------7---8---7------3--
!Нe oбpaщaйтe внимaния нa paccтoяниe мeждy нoтaми.
И coльник:1)----10-----10--10---9----5----7s5-----10---10--10--12--14---
1)---12--10---14---12---10----14---12----7s10(нe oтпycкaйтe!)----10---10---9--5
1)--7s5----9----12-------15-15-15(cкoлькo paз нe cчитaл-oиeнтиpyйтecь нa мeлoдию)
-
!Coлo пocлe 1 и 2 пpипeвa
[------------------------|----------------------|
------------------------|--10------------------|
------------11--11--12--|------------11--------|
------------------------|----------------------|
------------------------|----------------------|
------------------------|----------------------|
--------------------------------|----------------------|
--12----10------10--------------|--10------------------|
------------12------11--11--12--|------------11--------|
--------------------------------|----------------------|
--------------------------------|----------------------|
--------------------------------|----------------------|
-------------------------------|----------------------|
-------------------------------|--10------------------|
--12----11--9------11--11--12--|------------11--------|
---------------12--------------|----------------------|
-------------------------------|----------------------|
-------------------------------|----------------------|
--------------------------------|----------------------|
--12----10------10--------------|--10------------------|
------------12------11--11--12--|------------11--------|
--------------------------------|----------------------|
--------------------------------|----------------------|
--------------------------------|----------------------|
-------------------------|
-------------------------|
--12----11--9------------|
---------------12--------|
-------------------------|
-------------------------|]
!пocлe 3 пpипeвa
[|--10----------------|
|--------------------|
|--------------------|
|--------------------|
|--------------------|
|--------------------|
--------10--10----9----|------------------------|--------------------|
-----------------------|--10-----------10/12----|--10----------------|
-----------------------|------------------------|--------------------|
-----------------------|------------------------|--------------------|
-----------------------|------------------------|--------------------|
-----------------------|------------------------|--------------------|
--10----------------|--------10--10----12----|--14----------12----10--|
--------------------|------------------------|------------------------|
--------------------|------------------------|------------------------|
--------------------|------------------------|------------------------|
--------------------|------------------------|------------------------|
--------------------|------------------------|------------------------|
--12--10----9--10--9----7--|--10----------------|--------10--10----9----|
---------------------------|--------------------|-----------------------|
---------------------------|--------------------|-----------------------|
---------------------------|--------------------|-----------------------|
---------------------------|--------------------|-----------------------|
---------------------------|--------------------|-----------------------|
----------------------|-------------------|--------------------|
--10-----------7/8----|--7----------------|--10----------------|
----------------------|-------------------|--------------------|
----------------------|-------------------|--------------------|
----------------------|-------------------|--------------------|
----------------------|-------------------|--------------------|
--------------------|--------------------|--------------------------|
--14----------------|--17----------------|--19--19--19--19----------|
--------------------|--------------------|--------------------------|
--------------------|--------------------|--------------------------|
--------------------|--------------------|--------------------------|
--------------------|--------------------|--------------------------|]
-
>A D A
(1)Мы не знали друг друга до этого лета
>D A E F#m
Мы болтались по свету, земле и воде
>A D A
И совершенно случайно мы взяли билеты
>D A E F#m
На соседнее кресло на большой высоте
>A D A
Припев:И мое сердце остановилось,
>E F#m
Мое сердце замерло,
>A D A
И мое сердце остановилось,
>E F#m
Мое сердце замерло
(2)И ровно тысячу лет мы просыпаемся вместе
Даже если уснули в разных местах.
Мы идём ставить кофе под Элвиса Пресли,
Кофе сбежало под Propeller Heads, ах!
!Припев } 2 раза
(3)И, может быть, ты не стала звездой в Голливуде
Не выходишь на подиум в нижнем белье
У тебя не берут автографы люди,
Поёшь ты чуть тише, чем Монсерат Кабалье
(4)Так и я, слава Богу, не Ricky, не Martin,
Не выдвигался на Оскар, французам не забивал.
Моим именем не назван город на карте,
Но задёрнуты шторы и разложен диван
!Припев } 2 раза
(5)Я наяву вижу то, что многим даже не снилось,
Не являлось по кайфом, не стучалось в стекло.
Моё сердце остановилось, отдышалось немного
И снова пошло.
!Припев } 2 раза
И моё сердце asta la vista, моё сердце замерло.
-
>D G D
(1)Мы не знали друг друга до этого лета
>G D A D
Мы болтались по свету, земле и воде
>D G D
И совершенно случайно мы взяли билеты
>G D A D
На соседнее кресло на большой высоте
>D G D
Припев:Мое сердце остановилось,
>D A D
Мое сердце замерло,
>D G D
Мое сердце остановилось,
>D A D
Мое сердце замерло.
>D G D
(2)И ровно тысячу лет мы просыпаемся вместе
>G D A D
Даже если уснули в разных местах.
>D G D
Мы идём ставить кофе под Элвиса Пресли,
>G D A D
Кофе сбежал под PropellerHeads, ах!
!Припев
>D G D
(3)И, может быть, ты не стала звездой в Голливуде
>G D A D
Не выходишь на подиум в нижнем белье
>D G D
У тебя не берут автографы люди,
>G D A D
И поёшь ты чуть тише, чем Монсерат Кобалье
>D G D
(4)Ну так и я, слава Богу, не Ricky, не Martin,
>G D A D
Не выдвигался на Оскар, французам не забивал
>D G D
Моим именем не назван город на карте,
>G D A D
Но задёрнуты шторы и разложен диван
!Припев
>D G D
(5)Я наяву вижу то, что многим даже не снилось,
>G D A D
Не являлось по кайфом, не стучалось в стекло.
>D G D
Моё сердце остановилось...
>D G
Отдышалось немного...
>A D
И снова пошло!!!
!Припев } 2 раза
И моё сердце asta la vista, моё сердце замерло.
-
>D G D
(1)Мы не знали друг друга до этого лета
>G D A Hm
Мы болтались по свету, земле и воде
>D G D
И совершенно случайно мы взяли билеты
>G D A Hm
На соседнее кресло на большой высоте
>D G D
Припев:Мое сердце остановилось,
>D A Hm
Мое сердце замерло,
>D G D
Мое сердце остановилось,
>D A Hm
Мое сердце замерло.
>D G D
(2)И ровно тысячу лет мы просыпаемся вместе
>G D A Hm
Даже если уснули в разных местах.
>D G D
Мы идём ставить кофе под Элвиса Пресли,
>G D A Hm
Кофе сбежал под PropellerHeads, ах!
!Припев
>D G D
(3)И, может быть, ты не стала звездой в Голливуде
>G D A Hm
Не выходишь на подиум в нижнем белье
>D G D
У тебя не берут автографы люди,
>G D A Hm
И поёшь ты чуть тише, чем Монсерат Кобалье
>D G D
(4)Ну так и я, слава Богу, не Ricky, не Martin,
>G D A Hm
Не выдвигался на Оскар, французам не забивал
>D G D
Моим именем не назван город на карте,
>G D A Hm
Но задёрнуты шторы и разложен диван
!Припев
>D G D
(5)Я наяву вижу то, что многим даже не снилось,
>G D A Hm
Не являлось по кайфом, не стучалось в стекло.
>D G D
Моё сердце остановилось...
>D G
Отдышалось немного...
>A Hm
И снова пошло!!!
!Припев } 2 раза
И моё сердце asta la vista, моё сердце замерло.
[E||-----------------------|---------------------------|----------------------|
B||--7----8----10----7----|--12----10--8--10--7----7--|----------8-----10----|
G||-----------------------|---------------------------|----------------------|
D||-----------------------|---------------------------|----------------------|
A||-----------------------|---------------------------|----------------------|
E||-----------------------|---------------------------|----------------------|
-----------------------|------------------|------------------|
---7----8----7---------|------------------|------------------|
------------------7----|------------------|------------------|
-----------------------|------------------|------------------|
-----------------------|------------------|------------------|
-----------------------|------------------|------------------|
solo:E||------------------------------|------------------------|
B||--15----15--15--14--10--------|---------------------15-|
G||--------------------------14/-|-------16--14-----------|
D||------------------------------|------------------------|
A||------------------------------|------------------------|
E||------------------------------|------------------------|
----------------------------|--------------------------|
-----15--15--17----19----17-|-----15----17----15----14-|
----------------------------|--------------------------|
----------------------------|--------------------------|
----------------------------|--------------------------|
----------------------------|--------------------------|
--------------------------|--------------------------|------------------------|
-----15----14----12----15-|-----15---15--14----10----|------------------------|
--------------------------|--------------------------|--12----11----14--------|
--------------------------|--------------------------|------------------------|
--------------------------|--------------------------|------------------------|
--------------------------|--------------------------|------------------------|
----------------------|--------------------------|------------------|
----------------------|--20--20--20--20----------|------------------|
--18--------21--------|--------------------------|------------------|
----------------------|--------------------------|------------------|
----------------------|--------------------------|------------------|
----------------------|--------------------------|------------------|]
-
!Не забудьте Capo(!) на втором ладу!!!
>С Fmaj7 C
(1)Мы не знали друг друга до этого лета
>Fmaj7 C G Am
Мы болтались по свету, земле и воде
>C Fmaj7 C
И совершенно случайно мы взяли билеты
>Fmaj7 C G Am
На соседнее кресло на большой высоте
>С Fmaj7 C
Припев:Мое сердце остановилось,
>С G Am
Мое сердце замерло,
>С Fmaj7 C
Мое сердце остановилось,
>С G Am
Мое сердце замерло.
>С Fmaj7 C
(2)И ровно тысячу лет мы просыпаемся вместе
>Fmaj7 C G Am
Даже если уснули в разных местах.
>С Fmaj7 C
Мы идём ставить кофе под Элвиса Пресли,
>Fmaj7 C G Am
Кофе сбежал под PropellerHeads, ах!
!Припев
>С Fmaj7 C
(3)И, может быть, ты не стала звездой в Голливуде
>Fmaj7 C G Am
Не выходишь на подиум в нижнем белье
>С Fmaj7 C
У тебя не берут автографы люди,
>Fmaj7 C G Am
И поёшь ты чуть тише, чем Монсерат Кобалье
>С Fmaj7 C
(4)Ну так и я, слава Богу, не Ricky, не Martin,
>Fmaj7 C G Am
Не выдвигался на Оскар, французам не забивал :)
>С Fmaj7 C
Моим именем не назван город на карте,
>Fmaj7 C G Am
Но задёрнуты шторы и разложен диван
!Припев
>С Fmaj7 C
(5)Я наяву вижу то, что многим даже не снилось,
>Fmaj7 C G Am
Не являлось по кайфом, не стучалось в стекло.
>С Fmaj7 C
Моё сердце остановилось...
>С Fmaj7
Отдышалось немного...
>G Am
И снова пошло!!!
!Припев } 2 раза
И моё сердце asta la vista, моё сердце замерло.
!<Fmaj7> берётся очень легко:
!=======<Fmaj7>=======
6|-------|-------|-------|
5|-------|-------|-------|
4|-------|-------|---*---|
3|-------|---*---|-------|
2|---*---|-------|-------|
1|-------|-------|-------|
!I II III
!И ещё раз не забудьте, что желательно играть с каподастером.
!Тогда эти аккорды в точности ложатся на песню так, как её исполняет
!Васич. Удачи!
Документ
Категория
Ноты, аккорды
Просмотров
31
Размер файла
25 Кб
Теги
сердце, мое, сплин
1/--страниц
Пожаловаться на содержимое документа