close

Вход

Забыли?

вход по аккаунту

?

Сплин - Оpбит без сахаpа

код для вставкиСкачать
Гранатовый альбом (1998)
Оpбит без сахаpа
!(А. Васильев)
[E------------------------------------------------------------------------------
H------------------------------------------------------------------------------
G-7-5-------------5-3-2-2-0-2-0---7-5-------------0-2-3-2-0-----0--------------
D-----8-8-7-8-7-5---------------3-----8-8-7-8-7-5-----------3-3---2------------
A------------------------------------------------------------------------------
E------------------------------------------------------------------------------]
<Cm> [34553x] <Fm> [111331] <A#> [13331x]
!<D#> [68886x] <D#maj7> [68885x] или [68786x]
> Cm Fm
Verse:все таблетки подъедены
> D# A#
Марки тоже наклеены
> Cm Fm
Тишина в холодильнике
> D# A#
Hа дачу смылись родители
> Fm Bb
Chorus:Она жует свой оpбит без сахара,
> | D# D#maj7 | Cm
И вспоминает всех, о ком плакала
> Fm Bb
Она жует свой оpбит без сахара,
> | D# D#maj7 | Cm
И ненавидит всех о ком плакала
Bridge:<G> } 2 раза
> Cm Fm
Verse:Автоответчик пишет послания
> D# A#
CD поставлен на паузу
> Cm Fm
Родригес будет жить еще долго
> D# A#
А Duke Nukem должен умереть
!Chorus
!Bridge } 2 раза
> Cm Fm
Verse:Она ходила голой на лестницу
> D# A#
Ходила голой на улицу
> Cm Fm
Она хотела даже повеситься
> D# N.C.
Hо институт, экзамены, сессия
-
> Cm Fm
Все таблетки подъедены
> D# Bb
Марки тоже наклеены
Тишина в холодильнике
На дачу смылись родители
> Fm Bb
Припев:Она жует свой orbit без сахара,
> D# Cm
И вспоминает всех, о ком плакала
Она жует свой orbit без сахара,
И ненавидит всех о ком плакала
>G
Автоответчик пишет послания
CD поставлен на паузу
Родригес будет жить еще долго
А duke nukem должен умереть
!Припев
Она ходила голой на лестницу
Она ходила голой на улицу
Она хотела даже повеситься
Но институт, экзамены, сессия
!Припев
-
> Cm Fm
Все таблетки подъедены
> Bb Gm
Марки тоже наклеены
Тишина в холодильнике
На дачу смылись родители
-
Аккорды:<Cm> - [34553x] <Fm> - [111331] <A#> - [13331x]
!<D#> - [68886x] <D#maj7> - [68885x] или [68786x]
Вступление:1) ---------------------------------
2) ---------------------------------
3) -7-5-------------5-3-2-2-0-2-0---
4) -----8-8-7-8-7-5---------------3-
5) ---------------------------------
6) ---------------------------------
1) ----------------------------------
2) ----------------------------------
3) -7-5-------------0-2-3-2-0-----0--
4) ----8-8-7-8-7-5-----------3-3---2-
5) ----------------------------------
6) ----------------------------------
> Cm Fm
(1)Все таблетки подъедены
>D# A#
Марки тоже наклеены
Тишина в холодильнике
Hа дачу смылись родители
> Fm B
Припев:Она жует свой оpбит без сахара,
> D# D#maj7 Cm
И вспоминает всех, о ком плакала
> Fm B
Она жует свой оpбит без сахара,
> D# D#maj7 Cm
И ненавидит всех о ком плакала
Переход:<G> } 2 раза
(2)Автоответчик пишет послания
CD поставлен на паузу
Родригес будет жить еще долго
А Duke Nukem должен умереть
!Припев
!Переход
(3)Она ходила голой на лестницу
Ходила голой на улицу
Она хотела даже повеситься
Hо институт, экзамены, сессия
!Припев
!Переход
-
> Cm Fm
Все таблетки подъедены,
> D# B
Марки тоже наклеены.
Тишина в холодильнике,
На дачу смылись родители.
> Fm B
Она жует свой orbit без сахара,
> D# Cm
И вспоминает тех, о ком плакала.
> Fm B
Она жует свой orbit без сахара,
> D# Cm G
И ненавидит тех, о ком плакала.
Автоответчик пишет послания,
CD поставлен на паузу.
Родригес будет жить еще долго,
А Duke Nukem должен умереть.
Она жует свой orbit без сахара,
И ненавидит тех, о ком плакала.
Она жует свой orbit без сахара,
И вспоминает тех, о ком плакала.
Она ходила голой на лестницу,
Ходила голой на улицу.
Она хотела даже повеситься,
Но институт, экзамены, сессия.
Она жует свой orbit без сахара,
И вспоминает тех, о ком плакала.
Она жует свой orbit без сахара,
И ненавидит тех, о ком плакала.
А ты жуй-жуй свой orbit без сахара,
И вспоминай всех тех, кого...
А ты жуй-жуй свой orbit без сахара,
И ненавидь всех тех, кого...
-
1|-5-3-1-1-0-1-0---0-------0--------
2|---------------3---3-1-3---3-1-0--
3|----------------------------------
-
>Hm Em
(1)Все таблетки подъедены
>D A
Марки тоже наклеены
Тишина в холодильнике
На дачу смылись родители
Припев:Она жует свой орбит без сахара,
И вспоминает всех, о ком плакала
Она жует свой орбит без сахара,
И ненавидит всех о ком плакала
(2)Автоответчик пишет послания
CD поставлен на паузу
Родригес будет жить еще долго
А Duke Nukem должен умереть
!Припев
(3)Она ходила голой на лестницу
Она ходила голой на улицу
Она хотела даже повеситься
Но институт, экзамены, сессия
!Припев
-
>Am Dm
(1)Все таблетки подъедены
>C G
марки тоже наклеены
тишина в холодильнике
на дачу смылись родители
>Dm G
Припев:она жует свой orbit без сахара,
>C Am
и вспоминает всех, о ком плакала
она жует свой orbit без сахара,
и ненавидит всех о ком плакала
(2)автоответчик пишет послания
cd поставлен на паузу
родригес будет жить еще долго
а duke nukem должен умереть
!Припев
(3)она ходила голой на лестницу
она ходила голой на улицу
она хотела даже повеситься
но институт, экзамены, сессия
!Припев
-
<Cm>-<Fm>-<Eb>-<Bb>
>Cm Fm
(1)Все таблетки подъедены,
>Eb Bb
Марки тоже наклеены.
Тишина в холодильнике,
На дачу смылись родители.
>Cm Fm
Припев:Она жует свой Орбит без сахара
>Eb Bb
И вспоминает тех, о ком плакала.
>Cm Fm
Она жует свой Орбит без сахара
>Eb Bb G G G
И ненавидит тех, о ком плакала.
(2)Автоответчик пишет послания,
CD поставлен на паузу.
Родригес будет жить еще долго,
А Duke Nukem должен умереть.
Припев:Она жует свой Орбит без сахара
И ненавидиn тех, о ком плакала.
Она жует свой Орбит без сахара
И вспоминает тех, о ком плакала.
(3)Она ходила голой на лестницу,
Ходила голой на улицу.
Она хотела даже повеситься -
Но институт... экзамены... сессия...
Припев:Она жует свой Орбит без сахара
И вспоминает тех, о ком плакала.
Она жует свой Орбит без сахара
И ненавидит тех, о ком плакала.
Припев-альтернатива:
А ты жуй-жуй свой Орбит без сахара
И вспоминай всех тех кого...
А ты жуй-жуй свой Орбит без сахара
И ненавидь всех тех кого...
> Cm Fm Eb Bb G
[e|-3-|-1-|-6-|-6-|-3-|
B|-4-|-1-|-8-|-6-|-3-|
G|-5-|-1-|-8-|-7-|-4-|
D|-5-|-3-|-3-|-8-|-5-|
A|-3-|-3-|-6-|-8-|-5-|
E|-3-|-1-|-6-|-6-|-3-|]
-
Вступление:[e|-6------------------------------------
B|---9-7-7-6-7-6------6-------6---------
G|---------------8------8-6-8---8-6-5---
D|--------------------------------------
A|--------------------------------------
E|--------------------------------------
e|-6------------------------------------
B|---9-7-7-6-7-6------6-7-6-------6-----
G|---------------8--8-------8-6-8---8---
D|--------------------------------------
A|--------------------------------------
E|--------------------------------------]
Аккорды:< Emb F# Gm# C# A#>
[e|-6-|-6-|-4-|-4-|-6-|
B|-7-|-7-|-4-|-6-|-6-|
G|-8-|-6-|-4-|-6-|-7-|
D|-8-|-8-|-6-|-6-|-8-|
A|-6-|-9-|-6-|-4-|-8-|
E|-6-|-6-|-4-|-x-|-6-|]
>Emb Gm#
(1)Все таблетки подъедены,
>F# C#
Марки тоже наклеены.
>Emb Gm#
Тишина в холодильнике,
>F# C#
На дачу смылись родители.
>Gm# C#
Припев:Она жует свой Орбит без сахара
>F# Emb
И вспоминает тех, о ком плакала.
>Gm# C#
Она жует свой Орбит без сахара
>F# Emb A# A# A#
И ненавидит тех, о ком плакала.
(2)Автоответчик пишет послания,
CD поставлен на паузу.
Родригес будет жить еще долго,
А Duke Nukem должен умереть.
Припев:Она жует свой Орбит без сахара
И ненавидит тех, о ком плакала.
Она жует свой Орбит без сахара
И вспоминает тех, о ком плакала.
(3)Она ходила голой на лестницу,
Ходила голой на улицу.
Она хотела даже повеситься -
Но институт... экзамены... сессия...
Припев:Она жует свой Орбит без сахара
И вспоминает тех, о ком плакала.
Она жует свой Орбит без сахара
И ненавидит тех, о ком плакала.
А ты жуй-жуй свой Орбит без сахара
И вспоминай всех тех кого...
А ты жуй-жуй свой Орбит без сахара
И ненавидь всех тех кого...
-
>Hm Em
(1)Все таблетки подъедены
>D A
Марки тоже наклеены
Тишина в холодильнике
На дачу смылись родители
>Em Am
Припев:Она жует свой орбит без сахара,
>D Hm
И вспоминает всех, о ком плакала
>Em Am
Она жует свой орбит без сахара,
>D Hm F#
И ненавидит всех о ком плакала
(2)Автоответчик пишет послания
CD поставлен на паузу
Родригес будет жить еще долго
А Duke Nukem должен умереть
!Припев
(3)Она ходила голой на лестницу
Она ходила голой на улицу
Она хотела даже повеситься
Но институт, экзамены, сессия
!Припев
-
>Dm Gm
(1)все таблетки подъедены
>F C
Марки тоже наклеены
>Dm Gm
Тишина в холодильнике
>F C
Hа дачу смылись родители
>Gm C
Припев:Она жует свой оpбит без сахара,
>F Dm
И вспоминает всех, о ком плакала
Она жует свой оpбит без сахара,
И ненавидит всех о ком плакала
(2)Автоответчик пишет послания
CD поставлен на паузу
Родригес будет жить еще долго
А Duke Nukem должен умереть
!Припев
(3)Она ходила голой на лестницу
Ходила голой на улицу
Она хотела даже повеситься
Hо институт, зкзамены, сессия
!Припев
-
!Вступление:
!Довольно незамысловатое, поэтому справится каждый :)
!Первая гитара:
>Am Dm C G
[e|--5-3-----------------------------------------
H|------6-6-5-6-5-3------6-5-3---3-5-3----------
G|-----------------------------5-------5-4------
e|--5-3-----------------------------------------
H|------6-6-5-6-5-3--3-5-6-5-3---3-5-3----------
G|-----------------------------5-------5-4------]
!Вторая гитара:
[e|--0---------1-----------0----------3----------
H|--1---------3-----------1----------3----------
G|--2---------2-----------0----------0----------
D|--2---------0-----------2----------0----------
A|--0---------0-----------3----------2----------
E|--0---------------------0----------3----------]
>Am Dm
(1)Все таблетки подъедены
>C G
Марки тоже наклеены
>Am Dm
Тишина в холодильнике
>C G
На дачу смылись родители
>Dm G7
Припев:Она жует свой орбит без сахара,
>C Am
И вспоминает всех, о ком плакала
>Dm G7
Она жует свой орбит без сахара,
>C Am (E E7 E)
И ненавидит всех о ком плакала
(2)Автоответчик пишет послания
CD поставлен на паузу
Родригес будет жить еще долго
А Duke Nukem должен умереть
(3)Она ходила голой на лестницу
Ходила голой на улицу
Она хотела даже повеситься
Но институт, экзамены, сессия
Документ
Категория
Ноты, аккорды
Просмотров
9
Размер файла
12 Кб
Теги
сахаpа, без, сплин, оpбит
1/--страниц
Пожаловаться на содержимое документа