close

Вход

Забыли?

вход по аккаунту

?

Танцы Минус - Половинка

код для вставкиСкачать
Половинка
!От аккорда <Dm> к <B>, <F> к <A(V)> переходить скольжением.
!Riff #1
> Dm(V) B F A(V)
[G)--7----3----2----7--
D)-7-7--3-3--3-3--7-7-
A)5----1---------5----
E)----------1---------]
!Riff #2
> Dm(V)B F A(V)
[G)--7---3-----2---7---
D)-7-7---3---3-3---7--
A)5----1--1------5--5-
E)----------1---------]
!Потом повторяйте еще раз Riff #1 b #2,
!а потом под них же начинайте петь 1-й куплет.
(1)У ночного огня под огромной луной,
Темный лес укрывал нас зеленой листвой,
Я тебя целовал у ночного огня,
Я тебе подарил половинку себя
!А потом начинайте играть легким ритмичным
!наигрыванием (чуть похожем на бой) аккордов <Dm B F A>.
!После каждого куплета проигрышь тех же аккордов.
>Dm B F A
(2)Свет далекой звезды, песни птиц до утра,
Ты смотрела в глаза мои шептала слова,
Ты не верила мне но любила меня,
>Dm B F A Dm B F
Я оставил с тобой половинку себя.
(3)То что было забыто то что было прошло,
Ты махала мне в след бирюзовым платком,
Я тебя целовал у ночного огня,
Ты оставила мне половинку меня
!В конце з-го куплета под аккорды идет соло:
!2 раза:
[D)0-0--0-2-0-0--0-2-0-0--0-2-0-0---------
A)----------3--------3--------3---3-0-3--]
-
!Intro:
!Riff1 (2 раза):
[E|-------------------------------------------------|
H|---------------1---------------------------------|
G|-------7/3--------------------0-------------2----|
D|----7-------------3----------------------2-----2-|
A|-5----------1--------1-----3-----3/0--0----------|
E|------------------------1------------------------|]
>Riff 1.
У ночного огня
Под огромной луной
Темный лес укрывал
Нас зеленой листвой
Я тебя целовал
У ночного огня
! <Hm G D F# Hm> (Все аккорды лучше брать на барре, кроме <D>)
Я тебе подарил
Половинку себя
>Hm G D F# Hm
Свет далекой звезды песни птиц до утра,
Ты смотрела в глаза мои шептала слова,
Ты не верила мне но любила меня,
Я оставил с тобой половинку себя
То что было забыто то что было прошло,
Ты махала мне в след бирюзовым платком,
Я тебя целовал у ночного огня,
Ты оставила мне половинку меня
Solo:[E|-------------------------------------------------------|
H|-------------------------------------------------------|
G|-7--7---7b10r7---------7b10r7---------7b10r7-----------|
D|----------------10--7----------10--7----------10--7--10|
A|-------------------------------------------------------|
E|-------------------------------------------------------|]
Документ
Категория
Ноты, аккорды
Просмотров
13
Размер файла
3 Кб
Теги
половинки, минус, танцы
1/--страниц
Пожаловаться на содержимое документа