close

Вход

Забыли?

вход по аккаунту

?

Тараканы - Journey To Ramonialand

код для вставкиСкачать
Journey To Ramonialand
>C F C F C F G
1|----------------------------------
2|----------------------------------
3|----------------------------------
4|--2-2-2-0---0-------0-------------
5|----------3---3-0-3---------------
6|----------------------------------
1|----------------------------------
2|----------------------------------
3|----------0-----------------------
4|--2-2-2-3-------------------------
5|------------3---------------------
6|----------------------------------
>C F
I was born in the wonderful land
> C F
And there I had many friends
> C F
Johnny, Joey, Tommie and Dee Dee
> G
They gave me human happiness
Here I met Sheena and Suzi
And we had a good time together
I flew over the waves like a surfin' bird
Like the right famous bird
>Dm Am F
I walking down the street
>F C
Only here I can kiss you baby
> Dm Am F
Do you wanna dance under the moonlight
>F G
Merry Xmass I don't wanna fight
>C F C
Journey to Ramonialand
> C F G
This is journey to Ramonialand
Документ
Категория
Ноты, аккорды
Просмотров
4
Размер файла
1 Кб
Теги
ramonialand, journey, тараканы
1/--страниц
Пожаловаться на содержимое документа