close

Вход

Забыли?

вход по аккаунту

?

Тараканы - Прекрасное Далеко

код для вставкиСкачать
Ïpeêpacíoe Äaëeêo
coëo:[E||------------------|--------------7-----------|
B||--------------0-2-|--4--4--4--4------4---4-4-|
G||------------------|--------------------------|
|------0----------------|--------------0---0-------|-----------------0-2-|
|--4-----2------------0-|--2--2--2--2----------4-2-|--0------------------|
|-------------------3---|--------------------------|---------------------|
|--4--4--4--4--2---0-------|--0-------------0-2-|--4--4--4--4--4---4---3-4-|
|----------------------4-2-|-------4------------|--------------------------|
|--------------------------|--------------------|--------------------------|
|--6-----------------|--7--7--7--7--7----6--6--|--9--9--7--6--6---7-4--4--|
|-----------------4--|-------------------------|--------------------------|
|--------------------|-------------------------|--------------------------|
|--4--4--4--4------7-11--11--|--9----11--11-------|--7--7--7--7--7----6--6--|
|--------------7-------------|--------------------|-------------------------|
|----------------------------|-----------------8--|-------------------------|
|--9---9-7--6--6---7-4--4--|--4--4--2--0----4-7-------|-----3--6--3--4------|
|--------------------------|--------------4--------4--|--4------------------|
|--------------------------|--------------------------|---------------------|]
Документ
Категория
Ноты, аккорды
Просмотров
20
Размер файла
1 Кб
Теги
прекрасное, далеко, тараканы
1/--страниц
Пожаловаться на содержимое документа