close

Вход

Забыли?

вход по аккаунту

?

Тату - 30 минут

код для вставкиСкачать
30 минут
Вступление:<Em C Am B7>
> Em
(1)Зареветь, убежать
> G
Или дверь на замок.
> C
И молчать, и лежать,
> Am B7
Изучать потолок.
И мечтать не как все,
Целовать небеса.
Потолок, карусель
Полчаса, полчаса
> Em C
Припев:Полчаса поезда под откос
> Am B7
Полчаса не твоя полоса
Полчаса, полчаса - не вопрос
Не ответ полчаса, полчаса
Полчаса без тебя, полчаса
Полчаса он и я, полчаса
Каждый сам, каждый сам, полчаса,
По своим адресам полчаса.
(2)Сорвалась и как все,
Как во сне -я не я.
Не моя карусель,
И мечта не моя.
Или дым, или грусть
Или дождь по глазам
Я вернусь, я вернусь
Полчаса, полчаса.
Припев:Полчаса поезда под откос
Полчаса не твоя полоса
Полчаса, полчаса - не вопрос
Не ответ полчаса, полчаса
Полчаса без тебя, полчаса
Полчаса он и я, полчаса
Каждый сам, каждый сам, полчаса,
По своим адресам полчаса.
-
!Вooбщeм игpaeтcя oбычным пepeбopoм :)
Intra:<Em Hm Em Hm H7 G H7 Em>
>Em Hm Em Hm
Зареветь. Убежать. Или дверь на замок.
>H7 G H7 Em
И молчать и лежать изучать потолок.
И мечтать не как все целовать небеса
Потолок карусель полчаса полчаса.
>Em Hm
Припев:Полчаса поезда под откос
>Em Hm
Полчаса не твоя полоса
>H7 G
Полчаса полчаса не вопрос
>H7 Em
Не ответ полчаса полчаса
Полчаса без тебя полчаса
Полчаса он и я полчаса
Каждый сам каждый сон полчаса
По своим адресам полчаса
Сорвалась и как все как во сне я не я
Не моя карусель и мечта не моя
Или дым или грусть или дождь по глазам.
Я вернусь я вернусь полчаса полчаса.
!Припев
!P.s.: <Hm> с барре обязателен!!!
-
!Я нaпиcaл эти aккopды нa вcякий cлyчaй, вдpyг бyдeт нeпoнятнo.
> G# C# A#m
[E|-4-----| E|-4----| E|-1-----|
B|-4-----| B|-4--6-| B|-1-2---|
G|-4-5---| G|-4--6-| G|-1---3-|
D|-4---6-| D|-4--6-| D|-1---3-|
A|-4---6-| A|-4----| A|-1-----|
E|-4-----| E|-X----| E|-X-----|
> Fm C# A#m C Fm C# A#m C Fm C# A#m C Fm C# A#m C ...
E|--13--------|-13-15-16-------------|-----|--------||--13--------|-13-15-16--------------|
B|-----13--11-|-----------14--13--11-|-----|--------||-----13--11-|-----------14--13--11--|
G|------------|----------------------|-----|-10--12-||------------|-----------------------|
D|------------|----------------------|-----|--------||------------|-----------------------|
A|------------|----------------------|-----|--------||------------|-----------------------|
E|------------|----------------------|-----|--------||------------|-----------------------|]
>.....Fm G#
Зареветь. Убежать. Или дверь на замок.
> C# A#m C
И молчать и лежать, изучать потолок.
> Fm G#
И мечтать не как все, целовать небеса.
> C# A#m C
Потолок, карусель, полчаса, полчаса.
>.....Fm C#
Припев:Полчаса поезда под откос
> A#m C
Полчаса не твоя полоса
> Fm C#
Полчаса полчаса не вопрос
> A#m C
Не ответ полчаса полчаса
Полчаса без тебя полчаса
Полчаса он и я полчаса
Каждый сам каждый сон полчаса
По своим адресам полчаса
!Соло: тоже самое
Сорвалась и как все как во сне я не я
Не моя карусель и мечта не моя
Или дым или грусть или дождь по глазам.
Я вернусь я вернусь полчаса полчаса.
!Припев
Документ
Категория
Ноты, аккорды
Просмотров
15
Размер файла
4 Кб
Теги
тату, минус
1/--страниц
Пожаловаться на содержимое документа