close

Вход

Забыли?

вход по аккаунту

?

Тату - Я Твоя Не Первая

код для вставкиСкачать
Я Твоя Не Первая
> Hm
Взять и успокоиться, золото-молчание,
> Dm Em Dm
Радио-"бессоница", станция-"прощание".
Кто кому достанется? Выпадет монетками,
Кто кому останется нервами-таблетками?
За ночными окнами закричит, сломается:
"Это не считается, это не считается..."
Верная не верная, тихая, случайная,
Я твоя не первая ты моя случайная
> Hm
Покажи, покажи, покажи, покажи, покажи,
Покажи мне любовь,
> Dm
Покажи, покажи, покажи, покажи, покажи,
> Em Hm
Покажи почему я с тобой.
Кажется откажется проще не знакомиться,
Кто из нас откажиться взять и успокоиться?
Девочки, как девочки, а потом лунатики,
Номера и стрелочки, шоколадки, фантики...
Спрячется, расплачется, скажет, испугается:
"Это не считается, это не считается
Верная не верная, тихая, печальная,
Я твоя не первая ты моя случайная
-
> Cm Fm Gm
[E|-------------|---------|---------|-------------|-------------|
B|-----------4-|---------|-------4-|-------------|-------------|
G|--------5----|-------5-|----5----|-----------1-|-----------3-|
D|-----5-------|----5----|---------|--------3----|--------5----|
A|--3----------|-3-------|-3-------|-----3-------|-----5-------|
E|-------------|---------|---------|--1----------|--3----------|]
!соло: играть под 1-ую табулатуру.
> Cm Cm Cm Fm Gm
[E|--3-|---------|---------|---------|---------|
B|--4-|--4-3----|--4-3----|--4-3----|--4-3----|
G|--5-|---------|-------1-|-------1-|-------3-|
D|--5-|-------5-|---------|---------|---------|
A|--3-|---------|---------|---------|---------|
E|--X-|---------|---------|---------|---------|
> Cm Cm Fm Gm
E|-----------|-----------|-----------|-----------|
B|--4-3-4----|--3-4-3----|--4-3-4----|--3/6--4-3-|
G|-----------|---------1-|---------1-|-----------|
D|---------5-|-----------|-----------|-----------|
A|-----------|-----------|-----------|-----------|
E|-----------|-----------|-----------|-----------|]
Алло... - эти слова играть
Алло... под 1-ую табулатуру
Видишь ветер?
Ну и что?
Посмотри в окно...
Ну и что?
А вчера было солнце...
Ну и что?
Зачем ты всё время говоришь одно и тоже?
А я-автоответчик.
!----------------------------------------
>Cm
Взять и успокоиться золото-молчание,
>Fm A#6
Радио-"бессоница", станция-"прощание".
>Cm
Кто кому достанется? Выпадет монетками,
>Fm Gm
Кто кому останется нервами-таблетками?
>Cm
За ночными окнами закричит, сломается:
>Fm A#6
"Это не считается, это не считается..."
>Cm
Верная не верная, тихая, печальная,
>Fm Gm
Я твоя не первая, ты моя случайная!
!Припев: на Distortione (аккорды можно брать и не полностью).
<Cm G# G#> (не знаю, может
Покажи, покажи, покажи, покажи, покажи, покажи [E|--4-----|] это и не <G#>, но
<G# Cm> [B|--4-----|] я беру его так)
Мне любовь! [G|--4-5---|]
>Cm G# [D|--4---6-|]
Покажи, покажи, покажи, покажи, [A|--4---6-|]
>G# Cm [E|--4-----|]
Почему, почему я с тобой!
Проигрыш:< Cm Fm A#6>
[E|--------------3-|-------------3-|--4-4-4-4-4----|----------1-3---|
B|--4-4-4-4--6----|-4-4-4-4--6----|-------------1-|-3-3-3-4--------|
G|----------------|---------------|---------------|----------------|
D|----------------|---------------|---------------|----------------|
A|--3---3----3----|-3---3----3----|---------------|-1---1----1-----|
E|----------------|---------------|--1---1---1----|----------------|
> Cm Fm Gm
E|--------------3-|-------------3-|--4-4-4-4-4----|-------------3--|
B|--4-4-4-3--6----|-4-4-4-3--6----|-------------1-|--3-3-3-4-6-----|
G|----------------|---------------|---------------|----------------|
D|----------------|---------------|---------------|----------------|
A|--3---3----3----|-3---3----3----|---------------|----------------|
E|----------------|---------------|--1---1---1----|--3---3---3-----|]
>Cm
Кажется откажется проще не знакомиться,
>Fm A#6
Кто из нас откажиться взять и успокоиться?
>Cm
Девочки как девочки, а потом лунатики,
>Fm Gm
Номера и стрелочки, шоколадки, фантики...
>Cm
Спрячется, расплачится, скажет, испугается:
>Fm A#6
"Это не считаетчя, это не считается".
>Cm
Верная не верная, тихая, печальная,
>Fm Gm
Я твоя не первая, ты моя случайная!
!Припев
!потом проигрыш маленький:
> Cm
[E|-------------|
B|-------------|
G|-------------|
D|----5---5----|
A|--3---3---3--|
E|-------------|]
Документ
Категория
Ноты, аккорды
Просмотров
18
Размер файла
5 Кб
Теги
твоя, тату, первая
1/--страниц
Пожаловаться на содержимое документа