close

Вход

Забыли?

вход по аккаунту

?

Тату - Я теперь твой враг

код для вставкиСкачать
Я теперь твой враг
> Hm Em A
[E|---------------2-----|------3-2-3-7---------5-5-----|
B|--2------2-3-2---2---|---------------5-5-5--7-7--7--|
G|----4--4-----------4-|----4----------6-6-6-------7--|
D|---------------------|------------------------------|
A|---------------------|------------------------------|
E|---------------------|------------------------------|
> Hm Em A
E|---------------2-----|---------2-|-0-0-|---3-2-3-7---------5-5----|
B|--2------2-3-2---2---|---2-3-2---|-0-0-|------------5-5-5--7-7--7-|
G|----4--4-----------4-|-4---------|-----|-4----------6-6-6-------7-|
D|---------------------|-----------|-----|--------------------------|
A|---------------------|-----------|-----|--------------------------|
E|---------------------|-----------|-----|--------------------------|]
>Hm
(1)Дым сигарет, старый букет,
>A Hm
Сутки смотрю в телевизор.
>Hm
Настежь балкон, и молчит телефон.
>G A Em F#
Задыхаюсь без тебя, и твержу про себя
>Hm G Em
Припев:Просто получилось так –
>F# Hm
Я теперь твой враг.
>Em F#
За какое преступление.
Просто получилось так –
Я теперь твой враг.
Я не попрошу прощения...
(2)Город не спит, время стоит.
С кем твои игры сегодня.
День или год, мне объявлен бойкот.
Не пойму, как дальше жить
Ты не можешь простить
Припев:Просто получилось так –
Я теперь твой враг.
За какое преступленье
Просто получилось так –
Я теперь твой враг.
Я не попрошу прощенья...
-
> Hm G
(1)Дым сигарет, старый букет,
> F Am
Сутки смотрю в телевизор.
> Hm G
Настежь балкон, и молчит телефон.
> Am D F Am
Задыхаюсь без тебя, и твержу про себя
> Hm G F
Припев:Просто получилось так –
> Am Dm
Я теперь твой враг.
> G F#m D Hm
За какое преступление
Просто получилось так –
Я теперь твой враг.
Я не попрошу прощения...
(2)Город не спит, время стоит.
С кем твои игры сегодня.
День или год, мне объявлен бойкот.
Не пойму, как дальше жить
Ты не можешь простить
Припев:Просто получилось так –
Я теперь твой враг.
За какое преступленье
Просто получилось так –
Я теперь твой враг.
Я не попрошу прощенья...
-
>Hm G
(1)Дым сигарет, старый букет,
>Em Hm
Сутки смотрю в телевизор.
>Hm G
Настежь балкон, и молчит телефон.
>Em G E F#
Задыхаюсь без тебя, и твержу про себя
>Hm G Em
Припев:Просто получилось так –
>F# Hm
Я теперь твой враг.
>G Em F#
За какое преступление
Просто получилось так –
Я теперь твой враг.
Я не попрошу прощения...
(2)Город не спит, время стоит.
С кем твои игры сегодня.
День или год, мне объявлен бойкот.
Не пойму, как дальше жить
Ты не можешь простить
Припев:Просто получилось так –
Я теперь твой враг.
За какое преступленье
Просто получилось так –
Я теперь твой враг.
Я не попрошу прощенья...
Документ
Категория
Ноты, аккорды
Просмотров
20
Размер файла
3 Кб
Теги
враги, тату, теперь, твой
1/--страниц
Пожаловаться на содержимое документа