close

Вход

Забыли?

вход по аккаунту

?

Фактор 2 - Посмотри мне в глаза

код для вставкиСкачать
Посмотри мне в глаза
>Dm C Am
[-------------1--------------------1------------------------------0------------------------------0-------0--
----------3---------------------3----3------3----------------1------1------1--------------1--------1-----
-------2------------2-------2-----------2-----------------0-------------0--------------2---------2--------
----0------------0------0-----------------------------------------------------------------------------------
---------------------------------------------------------3----------------------------0----------------------
--------------------------------------------------------------------------------------------------------------
---------------------------------------------------------------------------------------------------------------
-3-5-6-5-6-3---3-5-6-5---3-5-6-5-6-3---5-10-5-3---3-5-6-5-6-3---3-5-6-5---6-5-3---------------
---------------------------------------------------------------------------------------------------------------
----------------------------------------------------------------------------------------------------------------
----------------------------------------------------------------------------------------------------------------
----------------------------------------------------------------------------------------------------------------
----------------------------------------------------------------------------------------------------------------
-3-5-6-5-6-3—3-5-6-5---3-5-6-5-6-3---5-10-5-3---3-5-6-5-6-3---3-5-6-5h6---5-3---------------
----------------------------------------------------------------------------------------------------------------
----------------------------------------------------------------------------------------------------------------
----------------------------------------------------------------------------------------------------------------
----------------------------------------------------------------------------------------------------------------]
!На счет аккордов уверен. А вот на счет соло не очень.
-
Текст:Мы познакомились с тобой когда светила луна
И нарушая тишину сказал я что люблю тебя
Твой нежный взгляд будил во мне горячую любовь
И ждал я вечера всегда что бы тебя увидеть вновь
Все пацаны во дворе тебя принцесса называли
Ты была на высоте когда с тобою зажигали
Я смотрел в твою сторону и думал что зря
Я сказал тогда без страха что люблю тебя,
Разультат на лицо и я остался в дураках
Потому что все её носили на руках,
Но был я не один кто ей в любви признавался
И не был я единственный кто чуствам поддавался
Ведь прежде чем найдешь ты настоящюю любовь
Придется и помучится и увидеть кровь
С тех пор я говорю уже в который раз
Ведь мы любим и тех кто не любит наc
Припев:Посмотри мне в глаза и расскажи,
Что случилось с тобой, прошу не лги, } 2 раза
Посмотри мне в глаза и всё скажи
Теперь скажи-ка мне когда ты села на иглу, а?
Что на тебя нашло никак я не пойму,
Ну что понравилось, да?
Ты ощутила этот кайф, ну так попробуй ещё
И ты поймаешь вечный кайф да, да,
Уже блестят твои глаза при виде порошка
И ломит руки очень сильно и болит бошка
И ты ложишься под любого, у кого есть,
Ты опустилась очень низко и обратно не залезть,
А ведь когда-то коралевою была
И убивались по тебе пацаны и даже я,
А что теперь? Ты посмотри на кого ты похожа
Под глазами мешки и стала грубой нежная кожа
Убегаешь сама от себя, ты укололась
И забыла опять навсегда с чем боролась
В последний раз ты посмотрела на небо
И стало вдруг безжизненным твоё тело
!Припев } 2 раза
Документ
Категория
Ноты, аккорды
Просмотров
16
Размер файла
4 Кб
Теги
глаза, посмотри, фактор
1/--страниц
Пожаловаться на содержимое документа