close

Вход

Забыли?

вход по аккаунту

?

Х.. Забей - Блюз

код для вставкиСкачать
Блюз
Intro:[e----10-----13-10------------12-10-8----3--------------8----
b-10-------------------12------------7--1------------10-10--
g--------10---------12----12------------3-----11---12-------
D-------------------------------------------12---12---------
A-----------------------------------------------------------
E-----------------------------------------------------------
e-1--------------------------------------1-------10---------
b-1------0---------------------1---------1--10-13----10-----
g-2----1---------9-10-9-7-5-2--2--7-5-2--2------------------
D----2------9-12---------------2----------------------------
A-----------------------------------------------------------
E-----------------------------------------------------------
e----12-----------------------------------------------------
b-13--------------------------------------------------------
g-----------------------------------------------------------
D-----------------------------------------------------------
A-----------------------------------------------------------
E-----------------------------------------------------------]
>Am Dm7
В совдепе рождаются стремные дети.
> Am
Из них вырастают дебильные дяди.
>Dm Am
А ну его на хуй.
Документ
Категория
Ноты, аккорды
Просмотров
5
Размер файла
1 Кб
Теги
забей, блюз
1/--страниц
Пожаловаться на содержимое документа