close

Вход

Забыли?

вход по аккаунту

?

Х.. Забей - Джейсон Форрис

код для вставкиСкачать
Джейсон Форрис
Fill 1:[e|----------------------------------------------------|
b|----------------------------------------------------|
g|-----5----------------------------------------------|
D|-7-7-5----------------------------------------------|
A|-7-7-3----------------------------------------------|
E|-5-5------------------------------------------------|
Fill 2:e|----------------------------------------------------|
b|----------------------------------------------------|
g|-----5-5-5-5-5-5-5-5-5-5-5-5-5----------------------|
D|-7-7-5-5-5-5-5-5-5-5-5-5-5-5-5----------------------|
A|-7-7-3-3-3-3-3-3-3-3-3-3-3-3-3----------------------|
E|-5-5------------------------------------------------|]
!Fill 1
Мне приснился Джейсон Форрис.
Крейзи дэт в хоккейной маске.
Я ебал такие сны.
Я не люблю такие таски.
!Fill 2
Топором мне угрожая.
Он за мной всю ночь гонялся.
Хорошо, что я проснулся.
А не то бы обосрался.
!(небольшой проигрыш)
[e|---------|
b|---------|
g|---------|
D|-5-5-5---|
A|-5-5-5---|
E|-3-3-3---|]
Джейсон Форрис. } 4 раза
[e|-12--10-8------------------------------------|
b|----------10---------------------------------|]
!Solo
[e|------10-------11-------10---------------------|
b|-13-10----13-10----13-10----13-10--------------|
g|----------------------------------9------------|
D|-----------------------------------------------|
A|-----------------------------------------------|
E|-----------------------------------------------|]
Документ
Категория
Ноты, аккорды
Просмотров
6
Размер файла
2 Кб
Теги
забей, джейсон, форрис
1/--страниц
Пожаловаться на содержимое документа