close

Вход

Забыли?

вход по аккаунту

?

Х.. Забей - Спасская башня

код для вставкиСкачать
Спасская башня
[e-12-12-12-12-12-12-12-12-13-13-13-13-13-13-13-13-14-14-14-
b----------------------------------------------------------
g----------------------------------------------------------
D----------------------------------------------------------
A----------------------------------------------------------
E----------------------------------------------------------
e-14-14-14-14-14-15-15-15-15-15-15-15-15-16-16-16-16-16-16-
b----------------------------------------------------------
g----------------------------------------------------------
D----------------------------------------------------------
A----------------------------------------------------------
E----------------------------------------------------------
e-16-16-16-16-16-16-16-16-16-16-16-16---17-17----18-18-----
b-------------------------------------15------16-------17--
g----------------------------------------------------------
D----------------------------------------------------------
A----------------------------------------------------------
E----------------------------------------------------------
e-19-19------16---~10--------------------------------------
b-------18-------------------------------------------------
g----------9-----------------------------------------------
D----------9-----------------------------------------------
A----------7-----------------------------------------------
E----------------------------------------------------------]
Если б меня поставили к стенке.
Самого красного в мире Кремля.
Я бы залез на Спасскую башню.
И обосрал бы от страха Москву.
Всю!!
Всю!!
Всю!!
Всю!!
Документ
Категория
Ноты, аккорды
Просмотров
4
Размер файла
2 Кб
Теги
спасска, башня, забей
1/--страниц
Пожаловаться на содержимое документа