close

Вход

Забыли?

вход по аккаунту

?

Чёрный Кофе - Мертвые Души

код для вставкиСкачать
Мертвые Души
Проигрыш:[-----5---3---2-3-2-----5-----3-----2---------5---3---2-3-2-----5-----3-----
-----5---5-------------5-------5-----3-------5---5-------------5-------5---
---4---4---4---------5---5-------5-----4---4---4---4---------5---5-------5-
---------------------------------------------------------------------------
-------------------0-------3-------------------------------0-------3-------
-0---------------------------------------0---------------------------------
-2-----0-----------(12)---- (12) - флежолет на 12 ладу G' |---|---|---|-
---3-----(12)-------------- Эти флежолеты играются |---|---|-0-|-
-----4--------(12)--------- в конце каждой строфы |---|---|---|-
--------------------------- |---|---|---|-
--------------------------- |---|-0-|---|-
-------0------------------- |---|---|---|-]
>Em Hm Em
Пылает за окном звезда
>Am Am/C Em
Мигает огоньком лампада
>D C Am
И видно суждено и надо
>Am/C H7 C G' Am
Чтоб стала горечью отрада
>H7 Em
Hевесть ушедшая куда
Hад колыбелью тихий свет
И как не твой напев баюный
И свет и звезды лисий след
И месяц золотой и юный
Hи дней не знающий ни лет
>Am Hm С
Как жаль и больно мне вспугнуть
>Am Hm Em
Взбродить знакомую излуку
>D C Am
И взять как прежде в руки руку
>H7 C G' Am
Простишь ли мне земную муку
>H7 Em
Земную ласку не забудь
!Проигрыш
>Em H7 Em
Мигает за окном звезда
>Am Am/C Em
Hад колыбелью тихий свет
>D C Am
Поутру стол и табурет
>H7 C G' Am
Так значит суждено и нет
>H7 Em Am C D Em
Другого счастья мне не надо-а-а
Документ
Категория
Ноты, аккорды
Просмотров
17
Размер файла
2 Кб
Теги
черный, кофе, души, мертвые
1/--страниц
Пожаловаться на содержимое документа